PrimaNota.ru - самый крупный в мире бесплатный архив песенных текстов, аккордов, табулатур и нот


Appleseed Cast - Fishing The Sky - текст песни, таба, видео

Регистрация Запомнить меня
Войти через:  Facebook Google Twitter Vk Yandex Mail.ru

Appleseed Cast - Fishing The Sky - текст песни, таба, видео

Печатать
Просмотров: 150
-------------------------------------------------------------------------------
                  FISHING THE SKY - The Appleseed Cast
-------------------------------------------------------------------------------
Tabbed by: A.J. Conner
Email: ajconner123@gmail.com

Tuning: Guitar 1: Standard, Capo 4th Fret (Numbers relative to capo)
        Guitar 2: Standard, Capo 4th Fret (Numbers relative to capo)

Intro Riff 1 (Guitar 1):                 Intro Riff 2 (Guitar 1):
e|--------------------------------------|------------------------------------|
B|o-0---0--3\1-0--0---0----------------o|o-------0-------------0------------o|
G|--4\2-0--0---0--2\4-0--0---0-0---0-0--|------5---5---0-----4---4---0-------|
D|o----------------------4h5---5p4-0---o|o---0-------0-----0-------0--------o|
A|--------------------------------------|--3-------------2-------------------|
E|--------------------------------------|------------------------------------|

e|-----------------------------||
B|-------0-----------0--------o||
G|-----5---0-----------0---0---||
D|-----------0-----0-----0----o||
A|-------------0---------------||
E|--5------------3-------------||

Intro Riff 1 (Guitar 2):                       Intro Riff 2 (Guitar 2):
e|----------|----------------------------|-----------------------------------|
B|----------|o--------------------------o|o---------------------------------o|
G|------12--|---14--11---12--------------|------0---------0------------------|
D|----------|o--------------------------o|o---0---0-----0---0---------------o|
A|--10------|----------------------------|--3-------3-2-------2--------------|
E|----------|----------------------------|-----------------------------------|
 
e|---------------------------||
B|-------0-------0----------o||
G|-----5-4-5-4---0---(Rest)--||
D|-----0------h7-0----------o||
A|---------------------------||
E|--5------------------------||

ALL GUITARS REPEAT INTRO AGAIN. Then:

Interlude 1 (Guitar 1):
e|------------------------|
B|o-0----0----0----0-----o|
G|--5----4----5----4------|
D|o-0----0----0----0-----o|
A|--3----2----x----x------|
E|------------5----3------|

Interlude 1 (Guitar 2):
e|---------------------------------------------------------------------------|
B|o-8--8--8--8--8--8--8--8--8--8--8--8--8--8--8--8--------------------------o|
G|---------------------------------------------------------------------------|
D|o--10-10-10-10-10-10-10-10-10-10-10-10-10-10-10-10------------------------o|
A|---------------------------------------------------------------------------|
E|---------------------------------------------------------------------------|

Pre-verse: (GUITAR 1 PLAYS INTRO RIFF 1)

Pre-verse (Guitar 2): [With distortion]
e|------------------------|
B|o----------------------o|
G|------------------------|
D|o-5------5---7---------o|
A|--5------3---5----------|
E|--3---------------------|

Verse: (BOTH GUITARS PLAY INTRO RIFF 2 HEAVILY)

Interlude 2 (Guitar 1) [Quietly]:
e|---------------------------------------------------------------------------|
B|o-------------------------------------------------------------------------o|
G|----0---0---0---0---2---2---2---2---2---2---0---0---0---0---0---0----------|
D|o-0---0---0---0---0---0---0---0---4---4---4---4---2---2---2---2-----------o|
A|---------------------------------------------------------------------------|
E|---------------------------------------------------------------------------|

Interlude 2 (Guitar 2) [Quietly]:
e|---------------------------------------------------------------------------|
B|o--8--8--8--8--8--10--10--10--7--7--7--7--7--8--8--8----------------------o|
G|-----0--0--0--0--0---0---0---0--0--0--0--0--0--0--0--0---------------------|
D|o-------------------------------------------------------------------------o|
A|---------------------------------------------------------------------------|
E|---------------------------------------------------------------------------|

Chorus (Guitar 1) [Loudly]:
e|---------------------------------------------------------------------------|
B|--0---0------0---0---0---0---0------0---0----------------------------------|
G|--0---0------0---0---0---0---0------0---0----------------------------------|
D|--0---0------0---0---0---2---2------2---2----------------------------------|
A|--x---x------x---x---x---2---2------2---2----------------------------------|
E|--3---3------3---3---2---0---0------0---0----------------------------------|

Chorus (Guitar 2) [Loudly]:                 
e|---------------------------------------------------------------------------|
B|---------------------------------------------------------------------------|
G|---------------------------------------------------------------------------|
D|--5---5------5---5---4---2---2------2---2----------------------------------|
A|--5---5------5---5---4---2---2------2---2----------------------------------|
E|--3---3------3---3---2---0---0------0---0----------------------------------|

Interlude 3 (BOTH GUITARS PLAY INTERLUDE 2 RIFF FOR TWICE AS LONG)

Ending: Repeat Repeat Pre-Verse, Verse and Interlude 1. 

That's it! Good Luck :)


| /  slide up
| \  slide down
| h  hammer-on
| p  pull-off
| ~  vibrato
| +  harmonic
| x  Mute note
===============================================================================
Добавлено: 01.06.2012
Другие материалы по этой песне:

Страница создана 01.06.2012
http://primanota.ru/appleseed-cast/fishing-the-sky-chords.htm
Привет, Гость.
Предлагаем пройти революционный курс по гитаре.
Подарок от PrimaNota.Ru, забирай!