PrimaNota.ru - самый крупный в мире бесплатный архив песенных текстов, аккордов, табулатур и нот


Appleseed Cast - Fight Song - таба, видео

Регистрация Запомнить меня
Войти через:  Facebook Google Twitter Vk Yandex Mail.ru

Appleseed Cast - Fight Song - таба, видео

Печатать
Просмотров: 185
Уроки эстрадного вокала в Санкт-Петербурге
-------------------------------------------------------------------------------
                             FIGHT SONG - The Appleseed Cast
-------------------------------------------------------------------------------
Tabbed by:Joel
Email:

I've looked all over for a tab for this song but i don't think there is one.
I watched a few videos of this song live and he plays it with a capo on the 4th fret.  I 
to make out the rest. I know its not perfect but it's a start, please make changes as 
see it better. I did all of this on an acoustic.

Tuning: Standard CAPO on 4

Everything is in relation to the capo on the 4th fret
Everything is on here randomly.. just play it and you'll figure it out.
Intro
e|-----3-2----3-2--------------------------------------------------------|
B|---------3------3-----you get the point -------------------------------|
G|-----------------------------------------------------------------------|
D|-----------------------------------------------------------------------|
A|-----------------------------------------------------------------------|
E|-----------------------------------------------------------------------|
Everything below here is palm muted
Verse
e|-------------------------------------------------------------------------|
B|-------------------------------------------------------------------------|
G|--(9)----7-----5-----4---------------------------------------------------|
D|---9-----7-----5-----5---------------------------------------------------|
A|---7-----5-----3-----3---------------------------------------------------|
E|---7----(5)--------------------------------------------------------------|
     (optional)
 Later on in the song you can strum the verse
I think the chorus is the same as well and strummed


That is what i figured out play with it, and see if you can add more, comment and let me 
what you think
Добавлено: 12.04.2012
Другие материалы по этой песне:

Страница создана 09.04.2012
http://primanota.ru/appleseed-cast/fight-song-chords.htm
Привет, Гость.
Предлагаем пройти революционный курс по гитаре.
Подарок от PrimaNota.Ru, забирай!