PrimaNota.ru - самый крупный в мире бесплатный архив песенных текстов, аккордов, табулатур и нот


Appino - Il Testamento - бас-таба, видео

Регистрация Запомнить меня
Войти через:  Facebook Google Twitter Vk Yandex Mail.ru

Appino - Il Testamento - бас-таба, видео

Печатать
Просмотров: 69
Standard tuning


0:58 - Intro

g---------------------------------------------------------------------------------------------------
d---------------------------------------------------------------------------------------------------
a--3-3-3-3-3-3-3-3-----------------3-3-3-3-3-3-3-3-----------------------------------------0-0-0-0
E------------------3-3-3-3-1-1-1p0-----------------3-3-3-3-1-1-1p0-3-3-3-3-3-3-3-3-2-2-2-2----------

g---------------------------------------------------------------------------------------------------
d---------------------------------------------------------------------------------------------------
a--2-2-2-2-2-2-2-2-0-0-0-0-3-3-3-3------------------------------------------------------------------
E---------------------------------------------------------------------------------------------------


Verse (X 5)

"ho dieci strofe..."

g----------------------------------------------------------------------------------------------------
d----------------------------------------------------------------------------------------------------
a--3-3-3-3-3-3-3-3-----------------3-3-3-3-3-3-3-3-----------------------------------------0-0-0-0---
E------------------3-3-3-3-1-1-1p0-----------------3-3-3-3-1-1-1p0-3-3-3-3-3-3-3-3-2-2-2-2-----------


g----------------------------------------------------------------------------------------------------
d----------------------------------------------------------------------------------------------------
a--------------------------0-0-0-0-------------------------------------------------------------------
E--3-3-3-3-3-3-3-3-2-2-2-2---------------------------------------------------------------------------


Pre-Chorus/ Chorus (X 3)

"ne ho amati molti..."

g-----------------------------------------------------------------------------------------------------
d-----------------------------------------------------------------------------------------------------
a--3-3-3-3-3-3-3-3-----------------3-3-3-3-3-3-3-3-----------------------------------------0-0-0-0----
E------------------3-3-3-3-1-1-1p0-----------------3-3-3-3-1-1-1p0-3-3-3-3-3-3-3-3-2-2-2-2------------

g-----------------------------------------------------------------------------------------------------
d-----------------------------------------------------------------------------------------------------
a--2-2-2-2-2-2-2-2-0-0-0-0-3-3-3-3--------------------------------------------------------------------
E-----------------------------------------------------------------------------------------------------


3:32

g-----------------------------------------------------------------------------------------------------
d-----------------------------------------------------------------------------------------------------
a--3-(let ring)---------------------------------------------------------------------------------------
E-----------------------------------------------------------------------------------------------------


3:51

Verse (X 1)

Pre-Chorus/Chorus  (X 1)


4:30

g-----------------------------------------------------------------------------------------------------
d-----------------------------------------------------------------------------------------------------
a--3 (let ring)---------------------------------------------------------------------------------------
E-----------------------------------------------------------------------------------------------------


4:39 - Outro

g-----------------------------------------------------------------------------------------------------
d-----------------------------------------------------------------------------------------------------
a--5-5-5-5-5-5-5-5-----------------5-5-5-5-5-5-5-5----------------------------------------------------
E------------------5-5-5-5-3-3-3-3-----------------5-5-5-5-3-3-3-3-5-5-5-5-5-5-5-5-4-4-4-4-7-7-7-7----

g-----------------------------------------------------------------------------------------------------
d-----------------------------------------------------------------------------------------------------
a----------------------------------5 (let ring)-------------------------------------------------------
E--5-5-5-5-5-5-5-5-4-4-4-4-7-7-7-7--------------------------------------------------------------------


Enjoy!
Добавлено: 10.06.2016
Другие материалы по этой песне:
  • Аккорды и текст

Страница создана 10.06.2016
http://primanota.ru/appino/il-testamento-chords.htm
Привет, Гость.
Предлагаем пройти революционный курс по гитаре.
Подарок от PrimaNota.Ru, забирай!