PrimaNota.ru - самый крупный в мире бесплатный архив песенных текстов, аккордов, табулатур и нот


Appino - Fuoco - бас-таба, видео

Регистрация Запомнить меня
Войти через:  Facebook Google Twitter Vk Yandex Mail.ru

Appino - Fuoco - бас-таба, видео

Печатать
Просмотров: 94
Уроки эстрадного вокала в Санкт-Петербурге
Standard tuning



Verse 

g---------------------------------------------------------------------------------------------------------------
d---------------------------------------------------------------------------------------------------------------
a--0(x16)-------------------------------------------------------------------------------------------------------
E----------2(x16)-----------------------------------------------------------------------------------------------


Chorus

g---------------------------------------------------------------------------------------------------------------
d---------------------------------------------------------------------------------------------------------------
a--0(x12)--2(x4)---------/7-7-7-7-------------------------------------------------------------------------------
E------------------2(x12)---------------------------------------------------------------------------------------


Post-Chorus 

g---------------------------------------------------------------------------------------------------------------
d---------------------------------------------------------------------------------------------------------------
a----------------------4----------------------------------------------------------------------------------------
E--2--2h5p2---2--2-5-2------------------------------------------------------------------------------------------


Ending

g---------------------------------------------------------------------------------------------------------------
d---------------------------------------------------------------------------------------------------------------
a--0------------------------------------------------------------------------------------------------------------
E---------------------------------------------------------------------------------------------------------------


Song structure

Verse       x6
Chorus      x4
Post-Chorus x4
Verse       x2
Chorus      x4
Verse       x4
Ending
 
Добавлено: 10.06.2016
Вам также может быть интересно:
Другие материалы по этой песне:
  • Аккорды и текст

Страница создана 10.06.2016
http://primanota.ru/appino/fuoco-chords.htm
Привет, Гость.
Предлагаем пройти революционный курс по гитаре.
Подарок от PrimaNota.Ru, забирай!