PrimaNota.ru - самый крупный в мире бесплатный архив песенных текстов, аккордов, табулатур и нот


Apparitions - God Monkey Robot - бас-таба, видео

Регистрация Запомнить меня
Войти через:  Facebook Google Twitter Vk Yandex Mail.ru

Apparitions - God Monkey Robot - бас-таба, видео

Печатать
Просмотров: 69
-------------------------------------------------------------------------------
                             GOD MONKEY ROBOT - The Apparitions
-------------------------------------------------------------------------------
Tabbed by: efimfidrya
E-mail: efim.fidrya@gmail.com

Tuning: standard

Rest two measures and then start: 

G|--------------------------------|
D|--------------------------------| X 8
A|-3-3-3-3-3-3-3-3-3-3-3-3-3-3-3-3|
E|--------------------------------|

G|--------------------------------|
D|--------------------------------| X 2
A|--------------------------------|
E|-1~-----------------------------|

G|--------------------------------|
D|--------------------------------| X 2
A|/3-3-3-3-3-3-3-3-3-3-3-3-3-3-3-3|
E|--------------------------------|

G|--------------------------------|
D|--------------------------------| X 2
A|--------------------------------|
E|-1~-----------------------------|

G|--------------------------------|
D|--------------------------------| X 2
A|-3-3-3-3-3-3-3-3-3-3-3-3-3-3-3-3|
E|--------------------------------|

G|--------------------------------|
D|--------------------------------| X 2
A|--------------------------------|
E|-3-3-3-3-3-3-3-3-3-3-3-3-3-3-3-3|

G|--------------------------------|
D|--------------------------------| X 2
A|--------------------------------|
E|-1-1-1-1-1-1-1-1-1-1-1-1-1-1-1-1|

G|--------------------------------|
D|--------------------------------| X 8
A|-3-3-3-3-3-3-3-3-3-3-3-3-3-3-3-3|
E|--------------------------------|

G|--------------------------------|
D|--------------------------------| X 2
A|--------------------------------|
E|-1-1-1-1-1-1-1-1-1-1-1-1-1-1-1-1|

G|--------------------------------|
D|--------------------------------| X 4
A|/3-3-3-3-3-3-3-3-3-3-3-3-3-3-3-3|
E|--------------------------------|

G|--------------------------------|
D|--------------------------------| X 2
A|--------------------------------|
E|-1-1-1-1-1-1-1-1-1-1-1-1-1-1-1-1|

G|--------------------------------|
D|--------------------------------| X 2
A|--------------------------------|
E|-3-3-3-3-3-3-3-3-3-3-3-3-3-3-3-3|

G|--------------------------------|
D|--------------------------------| X 2
A|--------------------------------|
E|-1-1-1-1-1-1-1-1-1-1-1-1-1-1-1-1|

G|--------------------------------|
D|--------------------------------| X 2
A|-3-3-3-3-3-3-3-3-3-3-3-3-3-3-3-3|
E|--------------------------------|

G|--------------------------------|
D|-3-3-3-3-3-3-3-3-3-3-3-3-3-3-3-3| X 2
A|--------------------------------|
E|--------------------------------|

G|--------------------------------|
D|--------------------------------| X 2
A|-3-3-3-3-3-3-3-3-3-3-3-3-3-3-3-3|
E|--------------------------------|

G|--------------------------------|
D|-3-3-3-3-3-3-3-3-3-3-3-3-3-3-3-3| X 2
A|--------------------------------|
E|--------------------------------|

G|--------------------------------|
D|--------------------------------| X 4
A|-3-3-3-3-3-3-3-3-3-3-3-3-3-3-3-3|
E|--------------------------------|

G|--------------------------------|
D|--------------------------------| X 2
A|--------------------------------|
E|-1-1-1-1-1-1-1-1-1-1-1-1-1-1-1-1|

G|--------------------------------|
D|--------------------------------| X 2
A|/3-3-3-3-3-3-3-3-3-3-3-3-3-3-3-3|
E|--------------------------------|

G|--------------------------------|
D|--------------------------------| X 2
A|--------------------------------|
E|-1-1-1-1-1-1-1-1-1-1-1-1-1-1-1-1|

G|--------------------------------|
D|--------------------------------| X 2
A|--------------------------------|
E|-3-3-3-3-3-3-3-3-3-3-3-3-3-3-3-3|

G|--------------------------------|
D|--------------------------------| X 2
A|--------------------------------|
E|-1-1-1-1-1-1-1-1-1-1-1-1-1-1-1-1|

Rest one measure! And then...

G|--------------------------------|
D|--------------------------------| X 2
A|-3-3-3-3-3-3-3-3-3-3-3-3-3-3-3-3|
E|--------------------------------|

G|--------------------------------|
D|-3-3-3-3-3-3-3-3-3-3-3-3-3-3-3-3| X 2
A|--------------------------------|
E|--------------------------------|

G|--------------------------------|
D|--------------------------------| X 2
A|-3-3-3-3-3-3-3-3-3-3-3-3-3-3-3-3|
E|--------------------------------|

G|--------------------------------|
D|-3-3-3-3-3-3-3-3-3-3-3-3-3-3-3-3| X 2
A|--------------------------------|
E|--------------------------------|

G|--------------------------------|
D|--------------------------------| X 2
A|-3-3-3-3-3-3-3-3-3-3-3-3-3-3-3-3|
E|--------------------------------|

G|--------------------------------|
D|-3-3-3-3-3-3-3-3-3-3-3-3-3-3-3-3| X 2
A|--------------------------------|
E|--------------------------------|

G|--------------------------------|
D|--------------------------------| X 2
A|-3-3-3-3-3-3-3-3-3-3-3-3-3-3-3-3|
E|--------------------------------|

G|--------------------------------|
D|-3-3-3-3-3-3-3-3-3-3-3-3-3-3-3-3| X 2
A|--------------------------------|
E|--------------------------------|

G|--------------------------------|
D|--------------------------------| X 4
A|-3-3-3-3-3-3-3-3-3-3-3-3-3-3-3-3|
E|--------------------------------|

G|--------------------------------|
D|--------------------------------|
A|-3------------------------------|
E|--------------------------------|

| /  slide up
| \  slide down
| h  hammer-on
| p  pull-off
| ~  vibrato
| +  harmonic
| x  Mute note
===============================================================================
Добавлено: 16.12.2015
Другие материалы по этой песне:
  • Аккорды и текст

Страница создана 16.12.2015
http://primanota.ru/apparitions/god-monkey-robot-chords.htm
Привет, Гость.
Предлагаем пройти революционный курс по гитаре.
Подарок от PrimaNota.Ru, забирай!