PrimaNota.ru - самый крупный в мире бесплатный архив песенных текстов, аккордов, табулатур и нот


Apologetix - Lazy Brain - текст песни, таба, видео

Регистрация Запомнить меня
Войти через:  Facebook Google Twitter Vk Yandex Mail.ru

Apologetix - Lazy Brain - текст песни, таба, видео

Печатать
Просмотров: 184
                          Lazy Brain
                           Apologetix


Solo
   T     T          T     T          T     T          T     T
E----------------------------------------------------------------------|
B--14p10-14p10p7h10-14p10-14p10p7h10-14p10-14p10p7h10-14p10-14p10p7h10-|
G----------------------------------------------------------------------|
D----------------------------------------------------------------------|
A----------------------------------------------------------------------|
E----------------------------------------------------------------------|
   T     T          T     T          T     T          T     T
E----------------------------------------------------------------------|
B--15p10-15p10p7h10-15p10-15p10p7h10-15p10-15p10p7h10-15p10-15p10p7h10-|
G----------------------------------------------------------------------|
D----------------------------------------------------------------------|
A----------------------------------------------------------------------|
E----------------------------------------------------------------------|

E---------------------------------------------------------|
B-12p9-12p9-12p9-12p9-11p9-11p9--10p9-10p9-------10-------|
G--------------------------------------------9b------9~~~-|
D---------------------------------------------------------|
A---------------------------------------------------------|
E---------------------------------------------------------|

E--17-16-14-----14-16-17-17b~~-14-17-14----14----------------------------|
B-----------17b~~-----------------------17----17-15-14-----------17------|
G------------------------------------------------------16-14-16b----14~~-|
D------------------------------------------------------------------------|
A------------------------------------------------------------------------|
E------------------------------------------------------------------------|

E-17-14-17-14-17-14-17-14-18-15-21-17-21-17-21-17-21-17-20-16-20-16-20-16-|
B-------------------------------------------------------------------------|
G-------------------------------------------------------------------------|
D-------------------------------------------------------------------------|
A-------------------------------------------------------------------------|
E-------------------------------------------------------------------------|

E----17---------------------------------------------------------------------|
B-17b----17b~~-15-14--------------------------------------------------------|
G--------------------16--14---------14---------14---------14---13h14p13-16~-|
D--------------------------14h16p14---14h16p14---14h16p14---16--------------|
A---------------------------------------------------------------------------|
E---------------------------------------------------------------------------|

E----------------------------------------------16-17-19-19b-19~~--|
B-------------------------------------16-17-19--------------------|
G----------------------------14-16-17-----------------------------|
D-------------------14-16-17--------------------------------------|
A----------12-14-16-----------------------------------------------|
E-12-14-16--------------------------------------------------------|

                       LEGEND

                 T=tap
                 P=pull-off
                 h=hammer-on
                 b=bend
                 ~=vibrato

Please rate and comment.
Добавлено: 30.07.2012
Другие материалы по этой песне:
  • Аккорды и текст

Страница создана 01.03.2012
http://primanota.ru/apologetix/lazy-brain-chords.htm
Привет, Гость.
Предлагаем пройти революционный курс по гитаре.
Подарок от PrimaNota.Ru, забирай!