PrimaNota.ru - самый крупный в мире бесплатный архив песенных текстов, аккордов, табулатур и нот


Apologetix - Christmas Night - таба, видео

Регистрация Запомнить меня
Войти через:  Facebook Google Twitter Vk Yandex Mail.ru

Apologetix - Christmas Night - таба, видео

Печатать
Просмотров: 114
Уроки эстрадного вокала в Санкт-Петербурге
INTRO

e|--------------------------------|
B|-------3---------------------0--|
G|-----4---4---0-------0-----2----|
D|---4-------4-------0-----2------|
A|-2---------------2-----0--------|
E|---------------3----------------|

FILL 1

e|-------------------------0-----|
B|-------3-------------------0---|
G|-----4---4---0-------0-------0-|
D|---4-------4-------0-----------|
A|-2---------------2-----0-------|
E|---------------3---------------|

FILL 2(STRUM CHORDS)

e|-2----3--0--|
B|-3----3--2--|
G|-4----0--2--|
D|-4----0--2--|
A|-2----2--0--|
E|------3--0--|

FILL 3

e|-------------------2-----2-----5---3-2---0-2-|
B|---3---2-3---3-2-----2-----2-3---------2-----|
G|-4---------2-----2-----4---------------------|
D|---------------------------------------------|
A|---------------------------------------------|
E|---------------------------------------------|

CHORUS

e|------------------------------------------|
B|------------------------------------------|
G|------------------------------------------|
D|-9----9----9----9---/-5----5----7----7----|
A|-9----9----9----9---/-5----5----7----7----|
E|-7-77-7-77-7-77-7-77/-3-33-3-33-5-55-5-55-|
     **   **   **   **    **   **   **   **

e|----------------------------------------|
B|----------------------------------------|
G|----------------------------------------|
D|----------------------------------------|
A|-9----9----9----9---/2----2------5-4-0--|
E|-7-77-7-77-7-77-7-77/0-00-0-00-0--------|
     **   **   **   **   **   **

e|------------------------------------------|
B|------------------------------------------|
G|------------------------------------------|
D|-9----9----9----9---/-5----5----7----7----|
A|-9----9----9----9---/-5----5----7----7----|
E|-7-77-7-77-7-77-7-77/-3-33-3-33-5-55-5-55-|
     **   **   **   **    **   **   **   **


e|----------------------------------------|
B|----------------------------------------|
G|----------------------------------------|
D|----------------------------------------|
A|-9----9----9----9-99/-22222222-44444444-|
E|-7-77-7-77-7-77-7-77/-00000000-22222222-|
     **   **   **

INTERLUDE

e|-2-------2-------3-------|
B|---3-------2-------3-----|
G|-----4-------2-------4---|
D|-------------------------|
A|-------------------------|
E|-------------------------|

SOLO

e|-----------------------------------------------------|
B|-----------------------------------------------------|
G|-----------------------------------------------------|
D|-----------------------------------------------------|
A|--4-5-4-5-4/-7-5-4-5-4-----------57575757-45454545-0-|
E|7----------------------5-7-5-7-5---------------------|
                                   ******** ******** *
SOLO 2

e|--------------------------------------------|
B|--------------------------------------------|
G|--------------------------------------------|
D|--------------------------------------------|
A|--4-5-4-5-4/9-----------57575757-45454545-0-|
E|7-------------5-7-5-7-5---------------------|
                          ******** ******** *
Добавлено: 26.02.2012
Другие материалы по этой песне:
  • Аккорды и текст

Страница создана 26.02.2012
http://primanota.ru/apologetix/christmas-night-chords.htm
Привет, Гость.
Предлагаем пройти революционный курс по гитаре.
Подарок от PrimaNota.Ru, забирай!