PrimaNota.ru - самый крупный в мире бесплатный архив песенных текстов, аккордов, табулатур и нот


Apologetix - Cheap Birds - текст песни, таба, видео

Регистрация Запомнить меня
Войти через:  Facebook Google Twitter Vk Yandex Mail.ru

Apologetix - Cheap Birds - текст песни, таба, видео

Печатать
Просмотров: 178
h - hammer on
p - pull off
b - bend string up
r - release bend
/ - slide up
s - slide down
~ - vibrato
t - right hand tap
x - play \'note\' with heavy damping


GTR1 With slide
         G        D/F#      Em
e-|------------------------------------------------------------|
B-|---3-/-8--7/8-s-7------8--8-s7-s5-s3/5/7--3/5--5-/-3--------|
G-|------------------------------------------------------4--4/-|
D-|------------------------------------------------------------|
A-|------------------------------------------------------------|
E-|------------------------------------------------------------|

    F          C                      D
e-|------------------------------------------------------------|
B-|------6-6-6s5-----------------------------------------------|
G-|-/5-----------5---------4--5----7--s-5-/7--(7)-/19-s-----19-|
D-|----------------5s---/5------------------------------s19----|
A-|------------------------------------------------------------|
E-|------------------------------------------------------------|

        G         D/F#           Em           F
e-|------------------------------------------------------------|
B-|-----3/8-------7-/8s7---(7)/8-8s7-s5-s---5-s-3--------------|
G-|-----------------------------------------------4--4--/-5----|
D-|------------------------------------------------------------|
A-|------------------------------------------------------------|
E-|------------------------------------------------------------|

                           C            D
e-|------------------------------------------------------------|
B-|-----6s5----------------------------------------------------|
G-|--5------5----------4-5---7--s--5/7--7s5-/7--5/7--9/--------|
D-|------------5s---5------------------------------------------|
A-|------------------------------------------------------------|
E-|------------------------------------------------------------|

Verse1 and 2:
    G        D/F#               Em
 

e-|------------------------------------------------------------|
B-|------------------------------3--/--5-------5--s--3---------|
G-|-/12------------------------------------------------4--4----|
D-|------------------------------------------------------------|

   F           C                 D
   
e-|------------------------------------------------------------|
B-|------------------------------------------------------------|
G-|/5------------------4--5-----7--(7)s5-/7--(7)-/-19s17---19--|
D-|----------------/5-----------------------------------19-----|
A-|------------------------------------------------------------|

  G                 D/F#               Em
   
e-|------------------------------------------------------------|
B-|7/8-------------------------------3-/-5----5-s3-------------|
G-|-------------------------------------------------4--4-------|
D-|------------------------------------------------------------|

    F                            C                         D
      
e-|------------------------------------------------------------|
B-|------------------------------------------------------------|
G-|5--s--4-/5---------(5)s--------------------------5s----7----|
D-|----------------------------------2-/5----------------------|
A-|------------------------------------------------------------|
   
   D
e-|------------------------/-----------------------|
A-|-----------------------/------------------------|
G-|--(7)s5/7s5/6------(7)/---19s17/19s17/19--------|
D-|------------------------------------------------|

   G             D/F#                Em                 F 
   
e-|------------------------------------------------------------|
B-|7/8-------------------------------3-/--5-----5-s3-----------|
G-|--------------------------------------------------4--4-/-5--|
D-|------------------------------------------------------------|
A-|------------------------------------------------------------|
E-|------------------------------------------------------------|

            C                   D                           G
  
e-|------------------------------------------------------------|
B-|-------------------4---5--7-(7)-s5-/7---7s5-/7--7---9-/-12--|
G-|----------2-/-5---------------------------------------------|
D-|------------------------------------------------------------|
A-|------------------------------------------------------------|
E-|------------------------------------------------------------|

             D/F#          Em                          F
 
e-|------------------------------------------------------------|
B-|------------------------------------------------------------|
G-|-----------------------12s11s9s7-/9s---9-s7-----------------|
D-|--------------------------------------------9--9/-/10-------|
A-|------------------------------------------------------------|
E-|------------------------------------------------------------|

          C                    D
   
e-|-------------------------------------------------------------|
B-|-------------------------------------------------------------|
G-|-------------------------------------------------------------|
D-|------------------10s-----12s10----12----12s10/12s10/12s10/12|
A-|-----------3/10-----------------12---------------------------|
E-|-------------------------------------------------------------|

     F            C                       D
  
e-|-------------------------------------------------------------|
B-|-------------------------------------------------------------|
G-|7/10 10s9---------------5-/---------/19s17-----19s17----19/17|
D-|----------10--------/-----------------------19-------19------|
A-|-------------10-s3-/-----------------------------------------|
E-|-------------------------------------------------------------|

                       F             C                   D
                         and  this.....
e-|------------------------------------------------------------|
B-|-------------22---------------------------------------------|
G-|---19s17----/---19s-7/10-10s9--------------4-5------5/7-----|
D-|19-------19/------------------10----------------------------|
A-|---------------------------------10-(10)s-------------------|
E-|------------------------------------------------------------|

-This part comes in the first time. pay no attention to this in the second time-I
                                                                        I
   F              C                    D                                I
    Lord      knows,   I ...G     I
e-|---------------------------------------------------------------|  I
B-|---------------------------------------------------------------|  I
G-|/10-10s9------------------------------------------------7-/-12-|  I
D-|---------10---3-/9---10-------12s10-/12--12s10/12s10/12--------|  I
A-|----------10s3-------------------------------------------------|  I
E-|---------------------------------------------------------------|  I
                                                                        I
           D/F#       Em                               F                I
e-|---------------------------------------------------------------|  I
B-|---------------------------------------------------------------|  I
G-|-11/12-s-11------12s11s9s7/9/11--7/9-9s7---------10-10-10-s9---|  I
D-|----------------------------------------9-9--10----------------|  I
A-|---------------------------------------------------------------|  I
E-|---------------------------------------------------------------|  I
                                                                        I
         C               D                                              I
e-|---------------------------------------------------------------|  I
B-|------------------------------------17/22----------------------|  I
G-|-----------4-5---7s5/7-(7)-/19s17--------19-s-7/12--11/12-11---|  I
D-|----10---5------------------------19---------------------------|  I
A-|---10-(10)s----------------------------------------------------|  I
E-|---------------------------------------------------------------|  I
Then go to second verse...                                              I


    F         C            D
     Lord    knows I ...
e-|-----------------------|-----------------------------------------|
B-|-----------------------|-----------------------------------------|
G-|/10-10s9------------10-|/19s17-19s17-19s17--19s17-19s17-19s17----|
D-|--------10--------10---|-----19----19----19-----19----19----19---|
A-|----------10s5-/10-----|-----------------------------------------|
E-|-----------------------|-------Repeat this section twice---------|

   F                  C           D
    Lord,  help me,  
e-|------------------------------------------------------------|
B-|-3/6--6s5---------------------------------------------------|
G-|----------5-------4--5-------7s5/7s5/7s5/7s5/7s5/7s5/7s5----|
D-|------------5-s/5-------------------------------------------|
A-|------------------------------------------------------------|
E-|------------------------------------------------------------|

    G                Bb              C
(rythem with a phaser or a flanger phase sounds best)
             Lord,____________I ...
e-|------------------------------------------------------------|
B-|------------------------------------------------------------|
G-|-12ssssssssss-----------------------------------------------|
D-|-5-5-5-5-5-5-5-5-8-8-8-8-8-8-8-8--10-10-10-10-10-10-10-10-10|
A-|-5-5-5-5-5-5-5-5-8-8-8-8-8-8-8-8--10-10-10-10-10-10-10-10-10|
E-|-3-3-3-3-3-3-3-3-6-6-6-6-6-6-6-6--8--8--8--8--8--8--8--8--8-|

                          G              Bb              C
               
e-|------------------------------------------------------------|
B-|------------------------------------------------------------|
G-|------------------------------------------------------------|
D-|-10-10-10-10-10-10-10--5-5-5-5-5-5-5-5-8-8-8-8-8-8-8-8-10-10|
A-|-10-10-10-10-10-10-10--5-5-5-5-5-5-5-5-8-8-8-8-8-8-8-8-10-10|
E-|-8--8--8--8--8--8--8---3-3-3-3-3-3-3-3-6-6-6-6-6-6-6-6-8--8-|


   ________________________           bird?      yeah________
e-|-------------------------------------------------------15---|
B-|----------------------------------------------------15----15|
G-|------------------------------------------------------------|
D-|-10-10-10-10-10-10-10-10-10-10-10-10-10-10-10-10-10-10-10-10|
A-|-10-10-10-10-10-10-10-10-10-10-10-10-10-10-10-10-10-10-10-10|
E-|-8--8--8--8--8--8--8--8--8--8--8--8--8--8--8--8--8--8--8--8-|


ok hers the solo this goes along with the freebird from skynyrd apolo getix doesent 
play the whole thing but learn the whole thing and shock ur friends lol or u can
listen and figur out wat part apologetix plays it 

Repeat two times

E---------15----------15-----------------------------------
B----/18------15--18b----18b-18b---18-15-18--18rp15-18b----
G----------------------------------------------------------
D----------------------------------------------------------
A----------------------------------------------------------
E----------------------------------------------------------

E-------------------18------18------18---------------------
B----18-15-18b-18b-----18b-----18b-----18b-----------------
G----------------------------------------------------------
D----------------------------------------------------------
A----------------------------------------------------------
E----------------------------------------------------------

and

E-----18-----18-----18-----18-----18-----18-----18-----18--
B-18b----18b----18b----18b----18b----18b----18b----18b-----
G----------------------------------------------------------
D----------------------------------------------------------
A----------------------------------------------------------
E----------------------------------------------------------

E-------18-----18-----18-----18-----18-----18-----18----18-
B---18b----18b----18b----18b----18b----18b----18b----18b---
G----------------------------------------------------------
D----------------------------------------------------------
A----------------------------------------------------------
E----------------------------------------------------------

you pick each note

E----------------------------------------------------------
B---15-18-18b-15-18b-15-18-18b-15-18b-15-18-18b-15-18-18b--
G----------------------------------------------------------
D----------------------------------------------------------
A----------------------------------------------------------
E----------------------------------------------------------

E----------------------------------------------------------
B---15-18-18b-15-18b-15-18-18b-15-18b-15-18-18b-15-18-18b--
G----------------------------------------------------------
D----------------------------------------------------------
A----------------------------------------------------------
E----------------------------------------------------------


E----------------------------------------------------------
B---15-18-18b-15-18b-15-18-18b-15-18b-15-18-18b-15-18-18b--
G----------------------------------------------------------
D----------------------------------------------------------
A----------------------------------------------------------
E----------------------------------------------------------




E----------------------------------------------------------
B------18brp15-18b--18b~-----------------------------------
G----------------------------------------------------------
D----------------------------------------------------------
A----------------------------------------------------------
E----------------------------------------------------------

E----------------------------------------------------------
B------15h18p15-----15h18p15-----15h18p15-----15h18p15-----
G---17-----------17-----------17-----------17--------------
D----------------------------------------------------------
A----------------------------------------------------------
E----------------------------------------------------------

E----------------------------------------------------------
B------15h18p15-----15h18p15-----15h18p15-----15h18p15-----
G---17-----------17-----------17-----------17--------------
D----------------------------------------------------------
A----------------------------------------------------------
E----------------------------------------------------------

E----------------------------------------------------------
B------15h18p15-----15h18p15-----15h18p15-----15h18p15-----
G---17-----------17-----------17-----------17--------------
D----------------------------------------------------------
A----------------------------------------------------------
E----------------------------------------------------------

E----------------------------------------------------------
B------15h18p15-----15h18p15-----15h18p15-----15h18p15-----
G---17-----------17-----------17-----------17--------------
D----------------------------------------------------------
A----------------------------------------------------------
E----------------------------------------------------------



E----------------------------------------------------------
B---------15h18p15------15---------------------------------
G-----17------------17------15-------------15-----------15-
D---------------------------------17p15-17-----17p15-17----
A----------------------------------------------------------
E----------------------------------------------------------

E----------------------------------------------------------
B----------------------------------------------------------
G----------15--17p15-17p15----15-17p15-17p15-----15--17b---
D-------17-----------------17----------------17------------
A----------------------------------------------------------
E----------------------------------------------------------


E----------------------------------------------------------
B-----18--18--18--18--18--18--18--18--18--18--18--18--18---
G---------17b-----17b-----17b-----17b-----17b-----17b------
D----------------------------------------------------------
A----------------------------------------------------------
E----------------------------------------------------------

E----------------------------------------------------------
B-----18--18--18--18--18--18--18--18--18--18--18--18--18---
G---------17b-----17b-----17b-----17b-----17b-----17b------
D----------------------------------------------------------
A----------------------------------------------------------
E----------------------------------------------------------

E----------------------------------------------------------
B----18--18--18--------------------------------------------
G----17b-17b-17b---17p15-----------------------------------
D-------------------------17-------------------------------
A----------------------------------------------------------
E----------------------------------------------------------

E----------------------------------------------------------
B----------------------------------------------------------
G---15--------------15--------------15---------------------
D------17p15-------------17p15-----------17p15-------------
A------------17----------------17--------------17----------
E----------------------------------------------------------

E----------------------------------------------------------
B----------------------------------------------------------
G---15--------------15-------------------------------------
D------17p15-------------17p15-----15h17~------------------
A------------17----------------17--------------------------
E----------------------------------------------------------

E----------------------------------------------------------
B----------------------------------------------------------
G--------------------------------------15------------------
D-----15------15-17p15----15-17p15---------17~-------------
A---------17-----------17----------17----------------------
E----------------------------------------------------------

E----------------------------------------------------------
B----------------------------------------------------------
G-------------------------------------(15)-----------------
D-----15------15-17p15----15-17p15---------17~-------------
A---------17-----------17----------17----------------------
E----------------------------------------------------------

E----------------------------------------------------------
B----------------------------------------------------------
G----------------------------------------------------------
D----15------15--17-17-17p15---------17~-------------------
A--------17------------------17----------------------------
E----------------------------------------------------------

E----------------------------------------------------------
B----------------------------------------------------------
G----------------------------------------------------------
D----15------15-17p15-17p15-17p15-------15h17~-------------
A--------17-----------------------17-----------------------
E----------------------------------------------------------

E----------------------------------------------------------
B----------------------------------------------------------
G---------------15------------------15---------------15----
D------17p15--------17-----17p15--------17---17p15------17-
A------------17------------------17----------------17------
E----------------------------------------------------------

E----------------------------------------------------------
B----------------------------------------------------------
G---17b-17p15-------17b-17p15-------17b-17p15--------------
D-------------17p15-----------17p15----------17p15---------
A----------------------------------------------------------
E----------------------------------------------------------

E----------------------------------------------------------
B----------------------------------------------------------
G---17b-17p15-------17b-17p15-------17b-17p15--------------
D-------------17p15-----------17p15----------17p15---------
A----------------------------------------------------------
E----------------------------------------------------------

Hold onto that bend!

E----------------------------------------------------------
B----------------------------------------------------------
G----17b-17b-17b-17b-17b-17b-------------------------------
D----------------------------------------------------------
A----------------------------------------------------------
E----------------------------------------------------------

E----------------------------------------6----6----6-------
B-----6b-6b-6b-6-3-6-6r-3-6b-6-3-6b-6b-6b--6b---6b----6b---
G----------------------------------------------------------
D----------------------------------------------------------
A----------------------------------------------------------
E----------------------------------------------------------

E------3------3-------------------------------6----6-------
B---/6---3-6b---6b-6b-6-3-6-6r-3-6b-6-3-6b-6b---6b---6b----
G----------------------------------------------------------
D----------------------------------------------------------
A----------------------------------------------------------
E----------------------------------------------------------

E----------------------------------------------------------
B-----8b-8b-8b--6-8~----8-6-8~--8-6-8~--8-6-8~--8-6-8~-----
G----------------------------------------------------------
D----------------------------------------------------------
A----------------------------------------------------------
E----------------------------------------------------------

E-------------------------------------------------6-8------
B----8-6-8~--8-6-8~-----8b-8b-8b--6-8~--8-6-8~--8----------
G----------------------------------------------------------
D----------------------------------------------------------
A----------------------------------------------------------
E----------------------------------------------------------

E-----8rp6-----6--8rp6-------------------------------------
B-----------8----------8--6--8~---8-6-8~--8-6-8~-8b-8b-8b--
G----------------------------------------------------------
D----------------------------------------------------------
A----------------------------------------------------------
E----------------------------------------------------------

E----------------------------------------------------------
B----------------------------------------------------------
G-------12-12--12~------14p12------12-12---12~-----14p12---
D----14-----14------14---------14------14------14----------
A----------------------------------------------------------
E----------------------------------------------------------

E----------------------------------------------------------
B----------------------------------------------------------
G-------12-12----12~-----12~-------------------------------
D----14------14------14------------------------------------
A----------------------------------------------------------
E----------------------------------------------------------

E----------------(6)---------------6-----------------------
B--------6-8p6---6-8p6---6-8p6-------8p6-------------------
G-----/7-------7-------7-------7---------7-----------------
D----------------------------------------------------------
A----------------------------------------------------------
E----------------------------------------------------------

E----------------(6)---------------6-----------------------
B--------6-8p6---6-8p6---6-8p6-------8p6-------------------
G------7-------7-------7-------7---------7-----------------
D----------------------------------------------------------
A----------------------------------------------------------
E----------------------------------------------------------

E----------------(6)---------------6-----------------------
B--------6-8p6---6-8p6---6-8p6-------8p6-------------------
G------7-------7-------7-------7---------7-----------------
D----------------------------------------------------------
A----------------------------------------------------------
E----------------------------------------------------------

E---15----------15----------15----------15-----------------
B------18p15-------18p15-------18p15-------18p15-----------
G------------17----------17----------17----------17--------
D----------------------------------------------------------
A----------------------------------------------------------
E----------------------------------------------------------

E---15----------15----------15----------15-----------------
B------18p15-------18p15-------18p15-------18p15-----------
G------------17----------17----------17----------17--------
D----------------------------------------------------------
A----------------------------------------------------------
E----------------------------------------------------------

E---15----------15----------15----------15-----------------
B------18p15-------18p15-------18p15-------18p15-----------
G------------17----------17----------17----------17--------
D----------------------------------------------------------
A----------------------------------------------------------
E----------------------------------------------------------

E---15----------15----------15----------15-----------------
B------18p15-------18p15-------18p15-------18p15-----------
G------------17----------17----------17----------17--------
D----------------------------------------------------------
A----------------------------------------------------------
E----------------------------------------------------------

E---15----------15----------15----------15-----------------
B------18p15-------18p15-------18p15-------18p15-----------
G------------17----------17----------17----------17--------
D----------------------------------------------------------
A----------------------------------------------------------
E----------------------------------------------------------

E---15----------15----------15----------15-----------------
B------18p15-------18p15-------18p15-------18p15-----------
G------------17----------17----------17----------17--------
D----------------------------------------------------------
A----------------------------------------------------------
E----------------------------------------------------------

E---15----------15----------15----------15-----------------
B------18p15-------18p15-------18p15-------18p15-----------
G------------17----------17----------17----------17--------
D----------------------------------------------------------
A----------------------------------------------------------
E----------------------------------------------------------

E---15----------15----------15----------15-----------------
B------18p15-------18p15-------18p15-------18p15-----------
G------------17----------17----------17----------17--------
D----------------------------------------------------------
A----------------------------------------------------------
E----------------------------------------------------------

E---15----------15----------15----------15-----------------
B------18p15-------18p15-------18p15-------18p15-----------
G------------17----------17----------17----------17--------
D----------------------------------------------------------
A----------------------------------------------------------
E----------------------------------------------------------

E---15----------15----------15----------15-----------------
B------18p15-------18p15-------18p15-------18p15-----------
G------------17----------17----------17----------17--------
D----------------------------------------------------------
A----------------------------------------------------------
E----------------------------------------------------------

E---15----------15----------15----------15-----------------
B------18p15-------18p15-------18p15-------18p15-----------
G------------17----------17----------17----------17--------
D----------------------------------------------------------
A----------------------------------------------------------
E----------------------------------------------------------

E---18p15----18p15----18p15----18p15----18p15----18p15-----
B---------15-------15-------15-------15-------15-------15--
G----------------------------------------------------------
D----------------------------------------------------------
A----------------------------------------------------------
E----------------------------------------------------------

E---18p15----18p15----18p15----18p15----18p15----18p15-----
B---------15-------15-------15-------15-------15-------15--
G----------------------------------------------------------
D----------------------------------------------------------
A----------------------------------------------------------
E----------------------------------------------------------

E---13p10----13p10----13p10----13p10----13p10----13p10-----
B---------10-------10-------10-------10-------10-------10--
G----------------------------------------------------------
D----------------------------------------------------------
A----------------------------------------------------------
E----------------------------------------------------------

E----15--15--15--15--15--15--15-(15-15-15-15-15-15)--------
B----18b-18b-18b-18b-18b-18b-18r-18-18-18-15-15-15---------
G----------------------------------------------------------
D----------------------------------------------------------
A----------------------------------------------------------
E----------------------------------------------------------

E----------------------------------------------------------
B---15--15--15--15-(15--15-15-15)--------------------------
G---17b-17b-17b-17b-17r-17-17-17-----15--------------------
D---------------------------------17----17~----------------
A----------------------------------------------------------
E----------------------------------------------------------

E----------------------------------------------------------
B----------------------------------------------------------
G-----------------15------------------------15-------------
D-------17p15---------17~---------17p15---------17~--------
A-------------17-------------------------17----------------
E----------------------------------------------------------

E----------------------------------------------------------
B----------------------------------------------------------
G---17b-17p15-------17b-17p15-------17b-17p15--------------
D-------------17p15-----------17p15----------17p15---------
A----------------------------------------------------------
E----------------------------------------------------------

E----------------------------------------------------------
B----------------------------------------------------------
G---17b-17p15-------17b-17p15-------17b-17p15--------------
D-------------17p15-----------17p15----------17p15---------
A----------------------------------------------------------
E----------------------------------------------------------

E----------------------------------------------------------
B------15-18-----------------------------------------------
G-------------17br-15-17------15--12~--------12~-----------
D-------------------------17-------------14----------------
A----------------------------------------------------------
E----------------------------------------------------------

E----------------------------------------------------------
B----------------------------------------------------------
G----12--14b--12-14------12-14-12------12~-----------------
D--14----------------14------------14----------------------
A----------------------------------------------------------
E----------------------------------------------------------

E----------------------------------------------------------
B--------15br----------------------------------------------
G--------------14br--12-14-12-14-12------12~---------------
D------------------------------------14--------------------
A----------------------------------------------------------
E----------------------------------------------------------

Repeat four times...

E----------------------------------------------------------
B----------------------------------------------------------
G------12-------12~------12-------12~--------12-14--12~----
D-----------14----------------14---------14----------------
A----------------------------------------------------------
E----------------------------------------------------------

E----------------------------------------------------------
B-----15----15----15----15---------------------------------
G-----14b---14b---14b---14b--------------------------------
D----------------------------------------------------------
A----------------------------------------------------------
E----------------------------------------------------------

E----------------------------------------------------------
B---18-----18-----18-----18-----18-----18-----18-----18----
G------17b----17b----17b----17b----17b----17b----17b-------
D----------------------------------------------------------
A----------------------------------------------------------
E----------------------------------------------------------

E----------------------------------------------------------
B---18-----18-----18-----18-----18-----18-----18-----18----
G------17b----17b----17b----17b----17b----17b----17b-------
D----------------------------------------------------------
A----------------------------------------------------------
E----------------------------------------------------------

E---18-----18-----18-----18-----18-----18-----18-----18----
B------18b----18b----18b----18b----18b----18b----18b-------
G----------------------------------------------------------
D----------------------------------------------------------
A----------------------------------------------------------
E----------------------------------------------------------

E-------18-----18-----18-----18-----18-----18-----18-------
B---18b----18b----18b----18b----18b----18b----18b----------
G----------------------------------------------------------
D----------------------------------------------------------
A----------------------------------------------------------
E----------------------------------------------------------

E-------18-----18-----18-----18-----18-----18-----18-------
B---18b----18b----18b----18b----18b----18b----18b----------
G----------------------------------------------------------
D----------------------------------------------------------
A----------------------------------------------------------
E----------------------------------------------------------

E--22-----22-----22-----22-----22-----22-----22-----22-----
B-----22b----22b----22b----22b----22b----22b----22b----22b-
G----------------------------------------------------------
D----------------------------------------------------------
A----------------------------------------------------------
E----------------------------------------------------------

E--22-----22-----22-----22-----22-----22-----22-----22-----
B-----22b----22b----22b----22b----22b----22b----22b----22b-
G----------------------------------------------------------
D----------------------------------------------------------
A----------------------------------------------------------
E----------------------------------------------------------

E--22-----22-----22-----22-----22-----22-----22-----22-----
B-----22b----22b----22b----22b----22b----22b----22b----22b-
G----------------------------------------------------------
D----------------------------------------------------------
A----------------------------------------------------------
E----------------------------------------------------------

E----------------------------------------------------------
B---15-----------------------------------------------------
G------15b----15----17br17p15-17----15-17-15----17----15---
D----------17----17--------------17----------17----17------
A----------------------------------------------------------
E----------------------------------------------------------

E----------------------------------------------------------
B----------------------------------------------------------
G------15-17-15----17----15b-------------------------------
D---17----------17----17-----17~---------------------------
A----------------------------------------------------------
E----------------------------------------------------------

E---15----------15----------15----------15-----------------
B------18p15-------18p15-------18p15-------18p15-----------
G------------17----------17----------17----------17--------
D----------------------------------------------------------
A----------------------------------------------------------
E----------------------------------------------------------

E---15----------15----------15----------15-----------------
B------18p15-------18p15-------18p15-------18p15-----------
G------------17----------17----------17----------17--------
D----------------------------------------------------------
A----------------------------------------------------------
E----------------------------------------------------------

E---15----------15----------15----------15-----------------
B------18p15-------18p15-------18p15-------18p15-----------
G------------17----------17----------17----------17--------
D----------------------------------------------------------
A----------------------------------------------------------
E----------------------------------------------------------

E---15----------15----------15----------15-----------------
B------18p15-------18p15-------18p15-------18p15-----------
G------------17----------17----------17----------17--------
D----------------------------------------------------------
A----------------------------------------------------------
E----------------------------------------------------------

E---15----------15----------15----------15-----------------
B------18p15-------18p15-------18p15-------18p15-----------
G------------17----------17----------17----------17--------
D----------------------------------------------------------
A----------------------------------------------------------
E----------------------------------------------------------

E---15----------15----------15----------15-----------------
B------18p15-------18p15-------18p15-------18p15-----------
G------------17----------17----------17----------17--------
D----------------------------------------------------------
A----------------------------------------------------------
E----------------------------------------------------------

E----15--15--15--15--15--15--15-(15-15-15-15-15-15)--------
B----18b-18b-18b-18b-18b-18b-18r-18-18-18-15-15-15---------
G----------------------------------------------------------
D----------------------------------------------------------
A----------------------------------------------------------
E----------------------------------------------------------

E----------------------------------------------------------
B---15--15--15--15-(15--15-15-15)--------------------------
G---17b-17b-17b-17b-17r-17-17-17-----15--------------------
D---------------------------------17----17~----------------
A----------------------------------------------------------
E----------------------------------------------------------

E----------------------------------------------------------
B---18b-18-15----------------------------------------------
G-------------17br-15-17~--15------17----------------------
D------------------------------17~-------------------------
A----------------------------------------------------------
E----------------------------------------------------------

E----------------------------------------------------------
B----------------------------------------------------------
G-----3---5----3-5-3---3-5-3b------------------------------
D-------5---5--------5--------5~---------------------------
A----------------------------------------------------------
E----------------------------------------------------------

Добавлено: 14.04.2012
Другие материалы по этой песне:
  • Аккорды и текст

Страница создана 14.04.2012
http://primanota.ru/apologetix/cheap-birds-chords.htm
Привет, Гость.
Предлагаем пройти революционный курс по гитаре.
Подарок от PrimaNota.Ru, забирай!