PrimaNota.ru - самый крупный в мире бесплатный архив песенных текстов, аккордов, табулатур и нот


Apologetix - Back Intact - таба, видео

Регистрация Запомнить меня
Войти через:  Facebook Google Twitter Vk Yandex Mail.ru

Apologetix - Back Intact - таба, видео

Печатать
Просмотров: 102
artist-apologetix
song-back intact 
cd:new and used hits


Intro:	Play the intro 2 times.
E-----------------------|--3-0----------|
B-----3--3--3-----------|-------3-0-----|
G-----2--2--2--2--2--2--|-----------2b--|
D--2--0--0--0--2--2--2--|---------------|
A--2-----------0--0--0--|---------------|
E--0--------------------|---------------|

E-----------------------|----------------------|
B-----3--3--3-----------|----------------------|
G-----2--2--2--2--2--2--|----------------------|
D--2--0--0--0--2--2--2--|----------------------|
A--2-----------0--0--0--|----------------------|
E--0--------------------|--7-4--7-5--7-6--7-7--|

Verse:	Play the verse 2 times.

E-----------------------|--3-0----------|
B-----3--3--3-----------|-------3-0-----|
G-----2--2--2--2--2--2--|-----------2b--|
D--2--0--0--0--2--2--2--|---------------|
A--2-----------0--0--0--|---------------|
E--0--------------------|---------------|

E-----------------------|----------------------|
B-----3--3--3-----------|----------------------|
G-----2--2--2--2--2--2--|----------------------|
D--2--0--0--0--2--2--2--|----------------------|
A--2-----------0--0--0--|----------------------|
E--0--------------------|--7-4--7-5--7-6--7-7--|

Chorus:

E-----------------|-----------------| 
B-----------------|-----------------| 
G--2-----4--2--4--|--2-----4--2--4--| 
D--2--2--4--2--4--|--2--2--4--2--4--| 
A--0--2--2--0--2--|--0--2--2--0--2--| 
E-----0-----------|-----0-----------| 

E--3------------|--3--------------|
B--3--3---------|--3--3-----------|
G--0--2--2---2--|--0--2--2-----2--|
D-----0--2---2--|-----0--2-----2--|
A--------0---0--|--------0-----0--|
E----------3----|-----------3-----|

E-----------------|-----------------| 
B-----------------|-----------------| 
G--2-----4--2--4--|--2-----4--2--4--| 
D--2--2--4--2--4--|--2--2--4--2--4--| 
A--0--2--2--0--2--|--0--2--2--0--2--| 
E-----0-----------|-----0-----------| 

E--3--3--3--|--2--2--2--| 
B--3--3--3--|--3--3--3--| 
G--0--0--0--|--2--2--2--| 
D--0--0--0--|--0--0--0--| 
A-----------|-----------| 
E-----------|-----------| 

Now play the verse & chorus once more, 
then go on to the solo.

Solo:

Guitar 1 	Play this 4 times.	

E-----------------------|-----------------------|
B-----3--3--3-----------|-----------------------|
G-----2--2--2--2--2--2--|-----------------------|
D--2--0--0--0--2--2--2--|--2-2-2--2-2-2--2-2-2--|
A--2-----------0--0--0--|--2-2-2--2-2-2--2-2-2--|
E--0--------------------|--0-0-0--0-0-0--0-0-0--|

E--------------------|--------------|
B--3--3--3-----------|--------------|
G--2--2--2--2--2--2--|-----2-----2--|
D--0--0--0--2--2--2--|--2--2--2--2--|
A-----------0--0--0--|--2--0--2--0--|
E--------------------|--0-----0-----|

Guitar 2

E------------------|---------------| 
B------------------|---------------| 
G------------------|---0h2h3p2p0---| 
D------------------|-2-----------2-| 
A---7~--5-5~--4-4~-|---------------| 
E-0----------------|---------------| 

E------------------|---------------|
B------------------|---------------|
G------------------|-7--7--7--7-7b-|
D------------------|---------------|
A---7~--5-5~--4-4~-|---------------|
E-0----------------|---------------|

E-----------|-----------------------------|----------|
B---8----8~-|---8-10h11p10p8-10-8b--------|----------|
G-7---7--9~-|-9--------------------9-7-9~-|-12----12-|
D-----------|-----------------------------|----14----|
A-----------|-----------------------------|----------|
E-----------|-----------------------------|----------|

E-----------------------------------| 
B-----15-15---15--------------------| 
G-14b----14b-----14p12h14~----------| 
D--------------------------12h14-14-| 
A-----------------------------------| 
E-----------------------------------| 

E---------------------------|
B--------------------15-----|
G-12----14p12h14-14b----14b-|
D----14---------------------|
A---------------------------|
E---------------------------|

E----12-12-12-12~-|-12------------------------|
B-12--------------|----12----12--------15-----|
G-----------------|-------14----12-14b----14b-|
D-----------------|---------------------------|
A-----------------|---------------------------|
E-----------------|---------------------------|

E--------------------|-----------------------------------------|
B--------------------|----12----14----12-------15--------------|
G-14p12h14----12h14~-|----12----14----12h14-14b---14p12--------|
D----------14--------|-14----14----14-------------------14~14~-|
A--------------------|-----------------------------------------|
E--------------------|-----------------------------------------|

E-12~-|-----------------------|-0---------0----------0-0-0--0--|
B-----|-17p15p12----12--------|-5p3-5-5~--3p2-3~-3~--2p0-2~-2~-|
G-----|----------14----12-----|--------------------------------|
D-----|-------------------14\-|--------------------------------|
A-----|-----------------------|--------------------------------|
E-----|-----------------------|--------------------------------|

E-------12-12\-|-0---------0----------0-0-0--0--|-------------12\-|
B----12--------|-5p3-5-5~--3p2-3~-3~--2p0-2~-2~-|-15--15--15------|
G-14-----------|--------------------------------|-14b-14b-14b-----|
D--------------|--------------------------------|-----------------|
A--------------|--------------------------------|-----------------|
E--------------|--------------------------------|-----------------|

Now play the chorus once, before you go on to the bridge.

Bridge:

E--------------------------------|
B--------------------------------|
G--------------------------------|	Play this 
D--------------------------------|	4 times.
A-----5-4-0----------------------|
E--0---------7-4--7-5--7-6--7-7--|

E--------------------------------|
B--------------------------------|
G--------------------------------|	Play this
D-----5-4-0----------------------|	2 times.
A--0---------7-4--7-5--7-6--7-7--|
E--------------------------------|

E--------------------------------|
B--------------------------------|
G--------------------------------|	Play this 
D--------------------------------|	2 times.
A-----5-4-0----------------------|
E--0---------7-4--7-5--7-6--7-7--|

Play the chorus one more time, 
before you start on the 2nd solo.

2nd Solo:

Guitar 1	Play this 4 times.

E-----------------------|-----------------------|
B-----3--3--3-----------|-----------------------|
G-----2--2--2--2--2--2--|-----------------------|
D--2--0--0--0--2--2--2--|--2-2-2--2-2-2--2-2-2--|
A--2-----------0--0--0--|--2-2-2--2-2-2--2-2-2--|
E--0--------------------|--0-0-0--0-0-0--0-0-0--|

E--------------------|--------------|
B--3--3--3-----------|--------------|
G--2--2--2--2--2--2--|-----2-----2--|
D--0--0--0--2--2--2--|--2--2--2--2--|
A-----------0--0--0--|--2--0--2--0--|
E--------------------|--0-----0-----|

Guitar 2

E---------------|-----0---------0----------0-0-0--0--|-7------|
B-15b--13b--10~-|-----5p3-5-5~--3p2-3~-3~--2p0-2~-2~-|-8b-----|
G---------------|------------------------------------|-----9\-|
D---------------|------------------------------------|--------|
A---------------|------------------------------------|--------|
E---------------|-12\--------------------------------|--------|

E-0---------0----------0-0-0--0--|-12-12----12-|
B-5p3-5-5~--3p2-3~-3~--2p0-2~-2~-|-------12----|
G--------------------------------|-------------|
D--------------------------------|-------------|
A--------------------------------|-------------|
E--------------------------------|-------------|

E-12-12--12-12-12-12-12-|-12--------------------17-15-|
B-----------------------|----15p12----12--------------|
G-----------------------|----------14----12h14\-------|
D-----------------------|-----------------------------|
A-----------------------|-----------------------------|
E-----------------------|-----------------------------|

E-15p12h15p12----12-------------------|----------------------|
B-------------15----15p12h15p12----12-|----------------------|
G-------------------------------15----|-15p14p12h14p12----14-|
D-------------------------------------|----------------14----|
A-------------------------------------|----------------------|
E-------------------------------------|----------------------|

E----------------------|----------------------------| 
B----------------------|----------------------------| 
G----------------------|----------------------------| 
D-14p12h14p12----14-12-|-12b--12-12-12-12-12-12-12\-| 
A-------------14-------|----------------------------| 
E----------------------|----------------------------| 

E--15b-------15b-------|-15-15-15----15-15-15----|
B------17-17-----17-17-|----------17----------17-|
G----------------------|-------------------------|
D----------------------|-------------------------|
A----------------------|-------------------------|
E----------------------|-------------------------|

E-15-15-15----15-15-15----|-15-15-15----15-15-15----|
B----------17----------17-|----------17----------17-|
G-------------------------|-------------------------|
D-------------------------|-------------------------|
A-------------------------|-------------------------|
E-------------------------|-------------------------|

E-15-19-22-19-22-19-22-19-22-19-22-19-22-19-22-19-22-|
B----------------------------------------------------|
G----------------------------------------------------|
D-- JUST CONTINUE PLAYING WHILE THE SONG FADES OUT --|
A----------------------------------------------------|
E----------------------------------------------------|

Добавлено: 18.06.2012
Другие материалы по этой песне:
  • Аккорды и текст

Страница создана 18.06.2012
http://primanota.ru/apologetix/back-intact-chords.htm
Привет, Гость.
Предлагаем пройти революционный курс по гитаре.
Подарок от PrimaNota.Ru, забирай!