PrimaNota.ru - самый крупный в мире бесплатный архив песенных текстов, аккордов, табулатур и нот


Apollo 440 - Diamonds In The Sidewalk - таба, видео

Регистрация Запомнить меня
Войти через:  Facebook Google Twitter Vk Yandex Mail.ru

Apollo 440 - Diamonds In The Sidewalk - таба, видео

Печатать
Просмотров: 240
Авторы музыки: Noko, Howard Gray, Trevor Gray
Авторы текста: Jack Kerouac
Artist: apollo 440
Song: Diamonds in the sidewalk
From the album "Dude descending a staircase"

Standard tuning EADGBe
Capo on first fret (without capo, just play everything a semitone lower)
The numbers are showing the actual frets, the capo will hold down fret "1" for you

This is just the skeleton of the song, have fun covering it with skin :)


Part A

||-------------1~----------1------------------1~----------1--------||
||------------4~---------4---4---------------4~---------4---4------||
||-----------1~--------1-------1------------1~--------1-------1----|| repeat
||----------5~-------5-----------5---------5~-------5-----------5--||
||--6--6--(6~)---6~----------------6--6--(6~)---6~-----------------||
||-----------------------------------------------------------------||
            ^ring through                  ^ring through 


Part A variation

||-------------1~-----------------------------1~-------------------||
||------------4~---------4-------------------4~---------4----------||
||-----------1~--------1--------------------1~--------1------------|| repeat
||----------5~-------5---------------------5~-------5--------------||
||--6--6--(6~)---6~-------1h3p1----6--6--(6~)---6~-------1h3p1-----||
||-----------------------------343----------------------------343--||
            ^ring through                  ^ring through 

Part B

||--------------------------------------------------------------------||
||------------15~-------15~---15~---------15~--15~-------15~---15~----||
||----------15--------15--1515--15s--s1515---15--------15--1515--15s--|| rep. 
||-------12~------12~------------------------------12~----------------||
||--s1313-------13-------------------------------13-------------------||
||--------------------------------------------------------------------||

You can vary this, just try out


Tab: kayoo~
karlhutter@hotmail.com
Добавлено: 17.04.2012
Другие материалы по этой песне:
  • Аккорды и текст

Страница создана 17.04.2012
http://primanota.ru/apollo-440/diamonds-in-the-sidewalk-chords.htm
Привет, Гость.
Предлагаем пройти революционный курс по гитаре.
Подарок от PrimaNota.Ru, забирай!