PrimaNota.ru - самый крупный в мире бесплатный архив песенных текстов, аккордов, табулатур и нот


Apocalyptica - Farewell - таба, видео

Регистрация Запомнить меня
Войти через:  Facebook Google Twitter Vk Yandex Mail.ru

Apocalyptica - Farewell - таба, видео

Печатать
Просмотров: 707
Авторы музыки: Perttu Kivilaakso

-------------------------------------------------------------------------------
                             FAREWELL - Apocalyptica
-------------------------------------------------------------------------------
Tabbed by: Melinton Navas
Email: melinton_navas@hotmail.com

Tuning: Standard

e|---------------------------------------------------------------|
B|---------------------------------------------------------------|
G|---------------------------------------------------------------|
D|-10-12-13-12-10------------------------------------------------|
A|----------------10-10\8-8-8/10----14-14-12-10-13-12-10-8-8/10--|
E|---------------------------------------------------------------|

e|----------------------------------------------------------|
B|----------------------------------------------------------|
G|----------------------------------------------------------|
D|-13-13-12-13-12-10----------------------------------13~---|
A|-------------------10-10\8-8-8/10----14-14-12-10-13-------|
E|----------------------------------------------------------|

e|----------------------------------------------------------|
B|----------------------------------------------------------|
G|----------------------------------------------------------|
D|-13-13-12-13-12-10----------------------------------13~---|
A|-------------------10-10\8-8-8/10----14-14-12-10-13-------|
E|----------------------------------------------------------|

e|------------------------------------------------|
B|------------------------------------------------|
G|----------12-12---------------------------------|
D|-13-13-15-------10-10-8-10---9-9---9------------|
A|-------------------------------------13-11-13---|
E|------------------------------------------------|

e|-------------------------------------------------------|
B|-------------------------------------------------------|
G|-13-13-13-12-13-12-------------------------------------|
D|-------------------10-8-10--11-11-14-13-11-10----------|
A|----------------------------------------------10-8-10--|
E|-------------------------------------------------------|

e|------------------------------------------------|
B|------------------------------------------------|
G|-13-13--13-12-13-12-----------------------------|
D|--------------------10-8-10-11-11-14-13-11-10~--|
A|------------------------------------------------|
E|------------------------------------------------|

e|----------------------------------------------------------------------------------------------------|
B|----------------------------------------------------------------------------------------------------|
G|-13-12-13----13-13-13/15-17-17-10-17--15-17-13-12-13p12-10----10-10/13-15-17-17-10-17-15---13-12-13-|
D|----------11----------------------------------------------------------------------------------------|
A|----------------------------------------------------------------------------------------------------|
E|----------------------------------------------------------------------------------------------------|

e|------------------------------------------------------------------------------------------|
B|------------------------------------------------------------------------------------------|
G|-13-12-13----13-13-13/15-17-17-10-17--15-17-13-12-13p12-10----10-10/13-15-17-17-10-17-15--|
D|----------11------------------------------------------------------------------------------|
A|------------------------------------------------------------------------------------------|
E|------------------------------------------------------------------------------------------|

e|---------------------------------------------------------------|
B|---------------------------------------------------------------|
G|---------------------------------------------------------------|
D|-10-12-13-12-10------------------------------------------------|
A|----------------10-10\8-8-8/10----14-14-12-10-13-12-10-8-8/10--|
E|---------------------------------------------------------------|

e|--------------------------------------------------|
B|--------------------------------------------------|
G|----------12-12-----------------------------------|
D|-13-13-15-------10-10-8-10---9-9---9----------13--|
A|-------------------------------------13-11-13-----|
E|--------------------------------------------------|

e|-------------------------------------------------------|
B|-------------------------------------------------------|
G|-13-13-13-12-13-12-------------------------------------|
D|-------------------10-8-10--11-11-14-13-11-10----------|
A|----------------------------------------------10-8-10--|
E|-------------------------------------------------------|

e|------------------------------------------------|
B|------------------------------------------------|
G|-13-13--13-12-13-12-----------------------------|
D|--------------------10-8-10-11-11-14-13-11-10~--|
A|------------------------------------------------|
E|------------------------------------------------|

e|--------------------------------------------------------------------------------------------------------|
B|-----------------------------------------------------------------------------------16-16----------------|
G|-13-12-13----13-13-13/15-17-17-10-17--15-17-13-12-13p12-10----10-10/13-15-17-17-10-------15---13-12-13--|
D|----------11--------------------------------------------------------------------------------------------|
A|--------------------------------------------------------------------------------------------------------|
E|--------------------------------------------------------------------------------------------------------|

e|-----------------------------------------------------------------------------------------------|
B|-----------------------------------------------------------------------------------16-16--18^--|
G|-13-12-13----13-13-13/15-17-17-10-17--15-17-13-12-13p12-10----10-10/13-15-17-17-10-------------|
D|----------11-----------------------------------------------------------------------------------|
A|-----------------------------------------------------------------------------------------------|
E|-----------------------------------------------------------------------------------------------|

e|----------------------------------------------------------------------------------------------------------------|
B|----------------------------------------------------------------------------------------------------------------|
G|----------------------------------------------------------------------------------------------------------------|
D|-13-12-13---13-12-13-12-10---13-12-13---13-12-13-15---13-12-13---13-13-12-13-12---13-12-13-15-13-12-------------|
A|----------------------------------------------------------------------------------------------------13-13/15----|
E|----------------------------------------------------------------------------------------------------------------|

e|----------------------------------------------------------------------------------------------------------------|
B|----------------------------------------------------------------------------------------------------------------|
G|----------------------------------------------------------------------------------------------------------------|
D|-13-12-13---13-12-13-12-10---13-12-13---13-12-13-15---13-12-13---13-13-12-13-12---13-12-13-15-13-12-------------|
A|----------------------------------------------------------------------------------------------------13-13/15----|
E|----------------------------------------------------------------------------------------------------------------|

e|----------------------------------------------------------------------------------------------------|
B|-16-15-16----16-16-16/18-20---20-13-20-18-20-16-15-16p15-13---13-13/16-18-20-20-13-20-18---16-15-16-|
G|----------13----------------------------------------------------------------------------------------|
D|----------------------------------------------------------------------------------------------------|
A|----------------------------------------------------------------------------------------------------|
E|----------------------------------------------------------------------------------------------------|

e|------------------------------------------------------------------------------------18-18~---18/22-24----26--|
B|-16-15-16----16-16-16/18-20---20-13-20-18-20-16-15-16p15-13---13-13/16-18-20-20-13---------------------------|
G|----------13-------------------------------------------------------------------------------------------------|
D|-------------------------------------------------------------------------------------------------------------|
A|-------------------------------------------------------------------------------------------------------------|
E|-------------------------------------------------------------------------------------------------------------|

Very Nice Song... very nice tab hehe, I hope you like it! Any corrections... welcome...

| /  slide up
| \  slide down
| h  hammer-on
| p  pull-off
| ~  vibrato
| +  harmonic
| x  Mute note
===============================================================================
Добавлено: 09.06.2012
Другие материалы по этой песне:

Страница создана 04.05.2012
http://primanota.ru/apocalyptica/farewell-chords.htm
Привет, Гость.
Предлагаем пройти революционный курс по гитаре.
Подарок от PrimaNota.Ru, забирай!