PrimaNota.ru - самый крупный в мире бесплатный архив песенных текстов, аккордов, табулатур и нот


Apocalyptica - Broken Pieces - текст песни, таба, видео

Регистрация Запомнить меня
Войти через:  Facebook Google Twitter Vk Yandex Mail.ru

Apocalyptica - Broken Pieces - текст песни, таба, видео

Печатать
Просмотров: 512
This tab is a piece of piss, that's probably why no one else has tabbed it :L 
Should you find anything you think I've done wrong just copy this sort it out and 
post it yourself. I haven't done any of the cello riffs, however, just the guitar bits!


[Intro]

[Verse]
E|--------------|
B|--------------|
G|--------------|
D|-7-7----------|   x8
A|-7-7----------|
D|-7-7----------|

[PreChorus]
E|----------------|----------------|----------------|---------------------------|
B|----------------|----------------|----------------|---------------------------|
G|----------------|----------------|----------------|---------------------------|
D|-----0-0--------|-----2-2--------|-----3-3--------|-----2-2----2/3\2----2/3\2-|
A|-----0-0--------|-----2-2--------|-----3-3--------|-----2-2----2/3\2----2/3\2-|
D|--0--0-0--------|--2--2-2--------|--3--3-3--------|--2--2-2----2/3\2----2/3\2-|


E|----------------|----------------|----------------|-------------------|
B|----------------|----------------|----------------|-------------------|
G|----------------|----------------|----------------|-------------------|
D|-----0-0--------|-----2-2--------|-----3-3--------|--5-5-5-5-2-2-2-2--|
A|-----0-0--------|-----2-2--------|-----3-3--------|--5-5-5-5-2-2-2-2--|
D|--0--0-0--------|--2--2-2--------|--3--3-3--------|--5-5-5-5-2-2-2-2--|

[Chorus]
Obviously it isn't just boring old strumming up and down, so feel free to strum it how you like.
E|--------------------|------------------|  E|--------------------|-----------------------|
B|--------------------|------------------|  B|--------------------|-----------------------| 
G|--------------------|------------------|  G|--------------------|-----------------------| 
D|--7-7-7-7-9-9-10-10-|--3-3-3-3-0-0-0-0-|  D|--7-7-7-7-9-9-10-10-|--3-3-3-3-2/3\2--2/3\2-|    x2
A|--7-7-7-7-9-9-10-10-|--3-3-3-3-0-0-0-0-|  A|--7-7-7-7-9-9-10-10-|--3-3-3-3-2/3\2--2/3\2-|  
D|--7-7-7-7-9-9-10-10-|--3-3-3-3-0-0-0-0-|  D|--7-7-7-7-9-9-10-10-|--3-3-3-3-2/3\2--2/3\2-| 
  
[Verse]
E|--------------|
B|--------------|
G|--------------|
D|-7-7----------|   x8
A|-7-7----------|
D|-7-7----------|

[PreChorus]
E|----------------|----------------|----------------|---------------------------|
B|----------------|----------------|----------------|---------------------------|
G|----------------|----------------|----------------|---------------------------|
D|-----0-0--------|-----2-2--------|-----3-3--------|-----2-2----2/3\2----2/3\2-|
A|-----0-0--------|-----2-2--------|-----3-3--------|-----2-2----2/3\2----2/3\2-|
D|--0--0-0--------|--2--2-2--------|--3--3-3--------|--2--2-2----2/3\2----2/3\2-|


E|----------------|----------------|----------------|-------------------|
B|----------------|----------------|----------------|-------------------|
G|----------------|----------------|----------------|-------------------|
D|-----0-0--------|-----2-2--------|-----3-3--------|--5-5-5-5-2-2-2-2--|
A|-----0-0--------|-----2-2--------|-----3-3--------|--5-5-5-5-2-2-2-2--|
D|--0--0-0--------|--2--2-2--------|--3--3-3--------|--5-5-5-5-2-2-2-2--|

[Chorus]
E|--------------------|------------------|  E|--------------------|-----------------------|
B|--------------------|------------------|  B|--------------------|-----------------------| 
G|--------------------|------------------|  G|--------------------|-----------------------| 
D|--7-7-7-7-9-9-10-10-|--3-3-3-3-0-0-0-0-|  D|--7-7-7-7-9-9-10-10-|--3-3-3-3-2/3\2--2/3\2-|    x3
A|--7-7-7-7-9-9-10-10-|--3-3-3-3-0-0-0-0-|  A|--7-7-7-7-9-9-10-10-|--3-3-3-3-2/3\2--2/3\2-|  
D|--7-7-7-7-9-9-10-10-|--3-3-3-3-0-0-0-0-|  D|--7-7-7-7-9-9-10-10-|--3-3-3-3-2/3\2--2/3\2-| 
 
[Bridge]
E|--------------|
B|--------------|
G|--------------|
D|-7-7----------|   x4
A|-7-7----------|
D|-7-7----------|


E|--------------|--------------|--------------|-----------------|
B|--------------|--------------|--------------|-----------------|
G|--------------|--------------|--------------|-----------------|
D|-0-0----------|-7-7----------|-3-3----------|-2-2-2-2-2-2-2-2-|
A|-0-0----------|-7-7----------|-3-3----------|-2-2-2-2-2-2-2-2-|
D|-0-0----------|-7-7----------|-3-3----------|-2-2-2-2-2-2-2-2-|

[Interval]

[Chorus]
E|--------------------|------------------|  E|--------------------|-----------------------|
B|--------------------|------------------|  B|--------------------|-----------------------| 
G|--------------------|------------------|  G|--------------------|-----------------------| 
D|--7-7-7-7-9-9-10-10-|--3-3-3-3-0-0-0-0-|  D|--7-7-7-7-9-9-10-10-|--3-3-3-3-2/3\2--2/3\2-|    x3
A|--7-7-7-7-9-9-10-10-|--3-3-3-3-0-0-0-0-|  A|--7-7-7-7-9-9-10-10-|--3-3-3-3-2/3\2--2/3\2-|  
D|--7-7-7-7-9-9-10-10-|--3-3-3-3-0-0-0-0-|  D|--7-7-7-7-9-9-10-10-|--3-3-3-3-2/3\2--2/3\2-|
Добавлено: 29.06.2012
Другие материалы по этой песне:

Страница создана 29.06.2012
http://primanota.ru/apocalyptica/broken-pieces-chords.htm
Привет, Гость.
Предлагаем пройти революционный курс по гитаре.
Подарок от PrimaNota.Ru, забирай!