PrimaNota.ru - самый крупный в мире бесплатный архив песенных текстов, аккордов, табулатур и нот


Apocalypse Hoboken - Summer assault - таба, видео

Регистрация Запомнить меня
Войти через:  Facebook Google Twitter Vk Yandex Mail.ru

Apocalypse Hoboken - Summer assault - таба, видео

Печатать
Просмотров: 77


Summer Assault by Apocalypse Hoboken

Tabbed by Fisto McNaughty 1/6/05


Sort the rhythm and muting out yourselves 

Intro/bridge
e|---------------------|
B|---------------------|
G|----------9----------|
D|--2---/---9----------|
A|--2---/---7---x8/x2--|
E|--0-------0----------|

Verse
e|---------------------------------------------------------|
B|---------------------------------------------------------|
G|----------6-4-2-4-------2-4-6-7-------6-7-9-9------------|
D|--7-------6-4-2-4-------2-4-6-7-------6-7-9-9------------|
A|--7-------4-2-0-2-------0-2-4-5-------4-5-7-7--------x2--|
E|--5------------------------------------------------------|

Chorus
e|------------------------------|
B|------------------------------|
G|--------5-----7---5-----------|
D|--5-----5-----7---5---5-------|
A|--5-----3-----5---3---5---x2--|
E|--3-------------------3-------|

Interlude
e|-----------------------------------------------------------------------------------------------------|
B|-----------------------------------------------------------------------------------------------------|
G|----------------------------0---0-------------2---2---------0-2-4---2-4-2-4-2-4-2-4-2-4-2-4-2-4------|
D|----------0---0---------2-3-------3-2-0---4-5-------5-4-2--------------------------------------------|
A|------2-3-------3-2-0----------------------------------------------------------------------------x2--|
E|--3--------------------------------------------------------------------------------------------------|

"He fingers you 'til the morning..."
e|-----------------|
B|-----------------|
G|--4--------------|
D|--2---7---9---7--|
A|--2---7---9---7--|
E|------5---7---5--|

"I'm afraid for you and me..."
e|---------------------|
B|---------------------|
G|------5---4----------|
D|--5---5---4---7---5--|
A|--5---3---2---7---5--|
E|--3-----------5---3--|

Ending
e|-------------|
B|-------------|
G|--5---4------|
D|--5---4---5--|
A|--3---2---5--|
E|----------3--|


Добавлено: 14.08.2013
Вам также может быть интересно:
Другие материалы по этой песне:
  • Аккорды и текст

Страница создана 14.08.2013
http://primanota.ru/apocalypse-hoboken/summer-assault-chords.htm
Привет, Гость.
Предлагаем пройти революционный курс по гитаре.
Подарок от PrimaNota.Ru, забирай!