PrimaNota.ru - самый крупный в мире бесплатный архив песенных текстов, аккордов, табулатур и нот


Apocalypse Hoboken - Lonely socks - таба, видео

Регистрация Запомнить меня
Войти через:  Facebook Google Twitter Vk Yandex Mail.ru

Apocalypse Hoboken - Lonely socks - таба, видео

Печатать
Просмотров: 81


Lonely Socks by Apocalypse Hoboken

Tabbed by Fisto McNaughty 1/6/05


Sort the rhythm out yourselves 

"Hey there lonely socks..."
e|-----------------|
B|-----------------|
G|--7-------5------|
D|--7---7---5---5--|
A|--5---7---3---5--|
E|------5-------3--|

"Forget about those postcards..."
e|-------------------------|
B|-------------------------|
G|----------9--------------|
D|--2---7---9---7-------5--|
A|--2---7---7---7-------5--|
E|--0---5-------5-------3--|

"Wish upon a fallen star..."
e|-----------------|
B|-----------------|
G|--5-------7---5--|
D|--5---5---7---5--|
A|--3---5---5---3--|
E|------3----------|


Alternatively play all as open major chords on an acoustic 


Добавлено: 04.02.2014
Другие материалы по этой песне:
  • Аккорды и текст

Страница создана 04.02.2014
http://primanota.ru/apocalypse-hoboken/lonely-socks-chords.htm
Привет, Гость.
Предлагаем пройти революционный курс по гитаре.
Подарок от PrimaNota.Ru, забирай!