PrimaNota.ru - самый крупный в мире бесплатный архив песенных текстов, аккордов, табулатур и нот


Aphrodites Child - Such A Funny Night - аккорды и текст, видео

Регистрация Запомнить меня
Войти через:  Facebook Google Twitter Vk Yandex Mail.ru

Aphrodites Child - Such A Funny Night - аккорды и текст, видео

Печатать
Просмотров: 143
Such A Funny Night
Aphrodites Child
---------------------------------------------------------------------------------------------------
                                          Artist - Aphrodite's Child
                                         ****************************
                                          Song - Such A Funny Night
                                         ***************************
                                      Album - Best of Aphrodite's Child
                                     ***********************************
                                            Tabbed By - Ayreon77
                                           **********************
---------------------------------------------------------------------------------------------------
Tuning = Standard


INTRO
******
Acoustic
F

Small Guitar Solos
               Bb    C              F                     Bb    C              F          
e|----------------|-------------------------|----------------|-------------------|
B|-------10-------|----------------10-------|-------10-------|----------------10-|
G|-10-12----10-12-|-10-12-10-12-10----12-10-|-10-12----10-12-|-10-12-10-12-10----|
D|----------------|-------------------------|----------------|-------------------|
A|----------------|-------------------------|----------------|-------------------|
E|----------------|-------------------------|----------------|-------------------|
      
               Bb    C                 F                     Gm    C              F
e|----------------|----------------------------|----------------|-------------------|
B|-------10-------|-------------------10-------|-------10-------|----------10-10----|
G|-10-12----10-12-|-10-12-10-12-10-12----12-10-|-10-12----12-10-|-10-12-10-------10-|
D|----------------|----------------------------|----------------|-------------------|
A|----------------|----------------------------|----------------|-------------------|
E|----------------|----------------------------|----------------|-------------------|

--------------------------------------
VERSE 1
********
F
Oh, it's morning
       Bb
And my head is spinning 'round
        F                Dm
I had a girl when I came in
           Gm              C     F
But when I woke up she was gone

--------------------------------------
Whistle
********
Bb F Dm Gm C F

--------------------------------------
Small Guitar Solos
               Bb    C              F                     Bb    C              F          
e|----------------|-------------------------|----------------|-------------------|
B|-------10-------|----------------10-------|-------10-------|----------------10-|
G|-10-12----10-12-|-10-12-10-12-10----12-10-|-10-12----10-12-|-10-12-10-12-10----|
D|----------------|-------------------------|----------------|-------------------|
A|----------------|-------------------------|----------------|-------------------|
E|----------------|-------------------------|----------------|-------------------|
      
               Bb    C                 F                     Gm    C              F
e|----------------|----------------------------|----------------|-------------------|
B|-------10-------|-------------------10-------|-------10-------|----------10-10----|
G|-10-12----10-12-|-10-12-10-12-10-12----12-10-|-10-12----12-10-|-10-12-10-------10-|
D|----------------|----------------------------|----------------|-------------------|
A|----------------|----------------------------|----------------|-------------------|
E|----------------|----------------------------|----------------|-------------------|

--------------------------------------
VERSE 2
********
F
Oh, it's morning
       Bb
And my head is spinning 'round
        F                Dm
I had a girl when I came in
           Gm              C     F
But when I woke up she was gone

--------------------------------------
Whistle
********
Bb F Dm Gm C F

--------------------------------------
Small Guitar Solos
               Bb    C              F                     Bb    C                    F 
e|----------------|-------------------------|----------------|-------------------------|
B|-------10-------|----------------10-------|-------10-------|----10-------10-------10-|
G|-10-12----10-12-|-10-12-10-12-10----12-10-|-10-12----12-10-|-12----12-12----12-10----|
D|----------------|-------------------------|----------------|-------------------------|
A|----------------|-------------------------|----------------|-------------------------|
E|----------------|-------------------------|----------------|-------------------------|

               Bb    C                    F                     Gm    C                    F
e|----------------|-------------------------------|----------------|-------------------------|
B|-------10-------|----10-------10-------10-------|-------10-------|----10-------10----------|
G|-10-12----10-12-|-12----12-12----12-10----12-10-|-10-12----10-12-|-12----12-12----12-10-10-|
D|----------------|-------------------------------|----------------|-------------------------|
A|----------------|-------------------------------|----------------|-------------------------|
E|----------------|-------------------------------|----------------|-------------------------|


--------------------------------------
VERSE 3
********
F
Oh, it's morning
       Bb
And my head is spinning 'round
        F                Dm
I had a girl when I came in
           Gm              C     F
But when I woke up she was gone

--------------------------------------
PIANO - Bb F Dm Gm C F
******

--------------------------------------
Small Guitar Solos
               Bb    C              F                     Bb    C                    F 
e|----------------|-------------------------|----------------|-------------------------|
B|-------10-------|----------------10-------|-------10-------|----10-------10-------10-|
G|-10-12----10-12-|-10-12-10-12-10----12-10-|-10-12----12-10-|-12----12-12----12-10----|
D|----------------|-------------------------|----------------|-------------------------|
A|----------------|-------------------------|----------------|-------------------------|
E|----------------|-------------------------|----------------|-------------------------|

               Bb    C                    F                     Gm    C                    F
e|----------------|-------------------------------|----------------|-------------------------|
B|-------10-------|----10-------10-------10-------|-------10-------|----10-------10----------|
G|-10-12----10-12-|-12----12-12----12-10----12-10-|-10-12----10-12-|-12----12-12----12-10-10-|
D|----------------|-------------------------------|----------------|-------------------------|
A|----------------|-------------------------------|----------------|-------------------------|
E|----------------|-------------------------------|----------------|-------------------------|


--------------------------------------
VERSE 4
********
F
Oh, it's morning
       Bb
And my head is spinning 'round
        F                Dm
I had a girl when I came in
           Gm              C     F
But when I woke up she was gone

--------------------------------------
PIANO - Bb F Dm Gm C F
******

--------------------------------------
Gm          C              F
la la la la la la la la la
Gm          C              F
la la la la la la la la la
Gm          C              F
la la la la la la la la la

Continue with above and fade out



ENJOY............

Добавлено: 27.07.2015
Другие материалы по этой песне:
  • Аккорды и текст

Страница создана 27.07.2015
http://primanota.ru/aphrodites-child/such-a-funny-night-chords.htm
Привет, Гость.
Предлагаем пройти революционный курс по гитаре.
Подарок от PrimaNota.Ru, забирай!