PrimaNota.ru - самый крупный в мире бесплатный архив песенных текстов, аккордов, табулатур и нот


Apanhador Só - Paraquedas - таба, видео

Регистрация Запомнить меня
Войти через:  Facebook Google Twitter Vk Yandex Mail.ru

Apanhador Só - Paraquedas - таба, видео

Печатать
Просмотров: 47
Уроки эстрадного вокала в Санкт-Петербурге
-------------------------------------------------------------------------------
                             PARAQUEDAS - Apanhador Só
-------------------------------------------------------------------------------

Tabbed by: cheddargt
(thanks to mr. matheus_bastos_ from letras.mus)

Tuning: Standard

  Essa tua mania de não querer
                            nos... Definir, pode acabar...          *
e|-----------------------------------------------------------------|
B|-----------------------------------------------------------------|
G|-2-2-2-2-2-2-1-1-2-2-2-2-2-2-1-1-6-6-6-6-6-6-4-4-6-6-6-6-6-6-4-4-|
D|-----------------------------------------------------------------|
A|-----------------------------------------------------------------|
E|2-2-2-2-2-2-2-2-2-2-2-2-2-2-2-2-5-5-5-5-5-5-5-5-5-5-5-5-5-5-5-5--|


  Nos deixando imensos...          Nos deixando imensos...
e|-----------------------------------------------------------------|
B|-----------------------------------------------------------------|
G|-2-2-2-2-2-2-1-1-2-2-2-2-2-2-1-1-6-6-6-6-6-6-4-4-6-6-6-6-6-6-4-4-|
D|-----------------------------------------------------------------|
A|-----------------------------------------------------------------|
E|2-2-2-2-2-2-2-2-2-2-2-2-2-2-2-2-5-5-5-5-5-5-5-5-5-5-5-5-5-5-5-5--|

  Correntes sem correntes,
                 não se apontam... Direções, só cabe fluir...
e|-----------------------------------------------------------------|
B|-----------------------------------------------------------------|
G|-2-2-2-2-2-2-1-1-2-2-2-2-2-2-1-1-6-6-6-6-6-6-4-4-6-6-6-6-6-6-4-4-|
D|-----------------------------------------------------------------|
A|-----------------------------------------------------------------|
E|2-2-2-2-2-2-2-2-2-2-2-2-2-2-2-2-5-5-5-5-5-5-5-5-5-5-5-5-5-5-5-5--|


  Inventando o senso...            Inventando o senso...
e|-----------------------------------------------------------------|
B|-----------------------------------------------------------------|
G|-2-2-2-2-2-2-1-1-2-2-2-2-2-2-1-1-6-6-6-6-6-6-4-4-6-6-6-6-6-6-4-4-|
D|-----------------------------------------------------------------|
A|-----------------------------------------------------------------|
E|2-2-2-2-2-2-2-2-2-2-2-2-2-2-2-2-5-5-5-5-5-5-5-5-5-5-5-5-5-5-5-5--|

(esse próximo loop é lento, cantado com calma)

  Eu quase não quis nada...         Eu quase não quis nada...
e|-----------------------------------------------------------------|
B|-----------------------------------------------------------------|
G|-2-2-2-2-2-2-1-1-2-2-2-2-2-2-1-1-6-6-6-6-6-6-4-4-6-6-6-6-6-6-4-4-|
D|-----------------------------------------------------------------|
A|-----------------------------------------------------------------|
E|2-2-2-2-2-2-2-2-2-2-2-2-2-2-2-2-5-5-5-5-5-5-5-5-5-5-5-5-5-5-5-5--|

  Eu quase não fiz nada...         Eu quase não fiz nada...
e|-----------------------------------------------------------------|
B|-----------------------------------------------------------------|
G|-2-2-2-2-2-2-1-1-2-2-2-2-2-2-1-1-6-6-6-6-6-6-4-4-6-6-6-6-6-6-4-4-|
D|-----------------------------------------------------------------|
A|-----------------------------------------------------------------|
E|2-2-2-2-2-2-2-2-2-2-2-2-2-2-2-2-5-5-5-5-5-5-5-5-5-5-5-5-5-5-5-5--|

(volta a velocidade normal)
                                   Assistindo,
  Âncora boiando, nós a bordo...         o vento levar até que a... **
e|-----------------------------------------------------------------|
B|-----------------------------------------------------------------|
G|-2-2-2-2-2-2-1-1-2-2-2-2-2-2-1-1-6-6-6-6-6-6-4-4-6-6-6-6-6-6-4-4-|
D|-----------------------------------------------------------------|
A|-----------------------------------------------------------------|
E|2-2-2-2-2-2-2-2-2-2-2-2-2-2-2-2-5-5-5-5-5-5-5-5-5-5-5-5-5-5-5-5--|


  Vela aguente...                  Até que se arrebente...
e|-----------------------------------------------------------------|
B|-----------------------------------------------------------------|
G|-2-2-2-2-2-2-1-1-2-2-2-2-2-2-1-1-6-6-6-6-6-6-4-4-6-6-6-6-6-6-4-4-|
D|-----------------------------------------------------------------|
A|-----------------------------------------------------------------|
E|2-2-2-2-2-2-2-2-2-2-2-2-2-2-2-2-5-5-5-5-5-5-5-5-5-5-5-5-5-5-5-5--|

  Vôo em queda livre,                                               ***
            se o pára-quedas...    Não abrir, tudo desaba...
e|-----------------------------------------------------------------|
B|-----------------------------------------------------------------|
G|-2-2-2-2-2-2-1-1-2-2-2-2-2-2-1-1-6-6-6-6-6-6-4-4-6-6-6-6-6-6-4-4-|
D|-----------------------------------------------------------------|
A|-----------------------------------------------------------------|
E|2-2-2-2-2-2-2-2-2-2-2-2-2-2-2-2-5-5-5-5-5-5-5-5-5-5-5-5-5-5-5-5--|


  Flutuando junto...               Calmo e flutuante...
e|-----------------------------------------------------------------|
B|-----------------------------------------------------------------|
G|-2-2-2-2-2-2-1-1-2-2-2-2-2-2-1-1-6-6-6-6-6-6-4-4-6-6-6-6-6-6-4-4-|
D|-----------------------------------------------------------------|
A|-----------------------------------------------------------------|
E|2-2-2-2-2-2-2-2-2-2-2-2-2-2-2-2-5-5-5-5-5-5-5-5-5-5-5-5-5-5-5-5--|


  Inventando o senso...            Até que se arrebente...
e|-----------------------------------------------------------------|
B|-----------------------------------------------------------------|
G|-2-2-2-2-2-2-1-1-2-2-2-2-2-2-1-1-6-6-6-6-6-6-4-4-6-6-6-6-6-6-4-4-|
D|-----------------------------------------------------------------|
A|-----------------------------------------------------------------|
E|2-2-2-2-2-2-2-2-2-2-2-2-2-2-2-2-5-5-5-5-5-5-5-5-5-5-5-5-5-5-5-5--|

(novamente calmo, até o final)

  Nos deixando imensos...          Nos deixando... Imensos...
e|-----------------------------------------------------------------|
B|-----------------------------------------------------------------|
G|-2-2-2-2-2-2-1-1-2-2-2-2-2-2-1-1-6-6-6-6-6-6-4-4-6-6-6-6-6-6-4-4-|
D|-----------------------------------------------------------------|
A|-----------------------------------------------------------------|
E|2-2-2-2-2-2-2-2-2-2-2-2-2-2-2-2-5-5-5-5-5-5-5-5-5-5-5-5-5-5-5-5--|

-------------------------------------------------------------------

Observações!

* Fiz meu possível pra separar o que ele canta na primeira parte do que ele canta na 
segunda, por isso não estranhem um texto em cima do outro não, ok?
** Nosso grande amigo Alexandre Kupinski escreveu essa música como "o tempo levar" (é 
assim que ele canta na versão original) MÁSSSS pessoalmente eu acho que "vento levar" 
é muito mais bonito, e ele já cantou dessa forma em apresentações ao vivo também ;)
*** É "vôo" de "voar", não de "vou" nem de "vôo 347", não faz muita diferença, 
mas é só pra não confundir mesmo.

É isso aí! Qualquer dúvidas ou comentários, é só fazer aí embaixo, estou bem 
ativo recentemente porque estou aprendendo a tocar violão e estou à disposição.
Добавлено: 07.12.2015
Другие материалы по этой песне:
  • Аккорды и текст

Страница создана 07.12.2015
http://primanota.ru/apanhador-so/paraquedas-chords.htm
Привет, Гость.
Предлагаем пройти революционный курс по гитаре.
Подарок от PrimaNota.Ru, забирай!