PrimaNota.ru - самый крупный в мире бесплатный архив песенных текстов, аккордов, табулатур и нот


Aoi Shiori - Galileo Galilei - таба, видео

Регистрация Запомнить меня
Войти через:  Facebook Google Twitter Vk Yandex Mail.ru

Aoi Shiori - Galileo Galilei - таба, видео

Печатать
Просмотров: 148
                        Aoi Shiori OP - Galileo Galilei

Tabbed by: Jerry Flordeliza
Email: aznelven@live.com

Tuning:Standard

Just listen to the song and try to play the tabs accordingly ^^
If any problems, leave a comment, dont rate it down D:, atleast give it 4 stars xD, did
it by ear and by watching covers, I really like the song.
I am making a second version or should i say the other guitar :D.
PS:Also its not the full song, just the full OP of the anime, but if you listen to the 
full song, its the same thing but longer

E---------------|--------12---|-------------|--------12-|
B-------7-----7-|-----7--12---|-----7-----7-|-----7--12-|
G----9-----9----|--9----------|--9-----9----|--9--------|
D---------------|-------------|-------------|-----------|
A---------------|-------------|-------------|-----------|
E---------------|-------------|-------------|-----------|

E-----------------|-----------------|-----------------|
B-7-7-7-7-7-7-7-7-|-9-9-9-9-9-9-9-9-|-5-5-5-5-5-5-5-5-|
G-9-9-9-9-9-9-9-9-|-9-9-9-9-9-9-9-9-|-6-6-6-6-6-6-6-6-|
D-----------------|-----------------|-----------------|
A-----------------|-----------------|-----------------|
E-----------------|-----------------|-----------------|

E-------------------------|-----------------|-----|
B-12-12-12-12-12-12-12-12-|-4--4--2--4----5-|-2---|
G-11-11-11-11-11-11-11-11-|-4-----------4---|---4-|
D-------------------------|-----------------|-----|
A-------------------------|-----------------|-----|
E-------------------------|-----------------|-----|

E------------2-----|-------4--7-|----------------2-|
B------------------|----7-------|-4--4--2--4-------|
G--2/1\2--4-----2/-|-4----------|-4-----------4----|
D------------------|------------|------------------|
A------------------|------------|------------------|
E------------------|------------|------------------|

E-------|-4--4-------------|-2--2---------|
B--5----|-5----5----5----5-|-5--5-------5-|
G-----4-|-4------------4---|-4-------4----|
D-------|------------------|--------------|
A-------|------------------|--------------|
E-------|------------------|--------------|

E-------------------------|-------------------------|
B-5-5-5-5-5-5-7-7-7-7-7-7-|-3-3-3-3-3-3-3-3-3-3-3-3-|
G-------------------------|-------------------------|
D-2-2-2-2-2-2-4-4-4-4-4-4-|-6-6-6-6-6-6-6-6-6-6-6-6-|
A-------------------------|-------------------------|
E-------------------------|-------------------------|

E-12-|------------|---------------------|----------|
B-12-|------------|-------9----------10-|-9--------|
G----|------------|------------9--------|---9----8-|
D----|-6h7-9-7-6h-|-7--9----------9-----|----------|
A----|------------|---------------------|----------|
E----|------------|---------------------|----------|

E---------------|----------------|-------------------|
B---------------|----------------|-------9--------10-|
G-9----8----9---|--------------9-|----------9--------|
D---9---------9-|-6h7--9----7----|-7--9--------9-----|
A---------------|----------------|-------------------|
E---------------|----------------|-------------------|

E----------|-------------|---------|----------------|
B-9--------|-------------|-9-7-9-7-|-5-12--12-12-12-|
G---9----8-|-9---8--9----|---------|----------------|
D----------|---9-------9-|-9-7-9-7-|-6-13--13-13-13-|
A----------|-------------|---------|----------------|
E----------|-------------|---------|----------------|

E-------------------------------|-------------------------------|
B-9-9-9-9-9-9-12-12-12-12-12-12-|-14-14-14-14-14-14-12-12-12-12-|
G-9-9-9-9-9-9-11-11-11-11-11-11-|-13-13-13-13-13-13-11-11-11-11-|
D-------------------------------|-------------------------------|
A-------------------------------|-------------------------------|
E-------------------------------|-------------------------------|

E------------|-------------------|-----------|
B------------|-------9--------10-|-9---------|
G------------|----------9--------|----9----8-|
D-6h7-9-7-6h-|-7--9--------9-----|-----------|
A------------|-------------------|-----------|
E------------|-------------------|-----------|

E--------------|------------|-------12-|
B--------------|----7-----7-|-------12-|
G-9----8--9----|-9-----9----|----7-----|
D---9--------9-|------------|-9--------|
A--------------|------------|----------|
E--------------|------------|----------|

************************************

| /   slide up
| \   slide down
| h   hammer-on
| p   pull-off
| ~   vibrato
| +   harmonic
| x   Mute note
| b   Bend
| pb  Pre-bend
| br  Bend release
| pbr Pre-bend release
| brb Bend release bend

************************************
Добавлено: 16.03.2012
Другие материалы по этой песне:
  • Аккорды и текст

Страница создана 16.03.2012
http://primanota.ru/aoi-shiori/galileo-galilei-chords.htm
Привет, Гость.
Предлагаем пройти революционный курс по гитаре.
Подарок от PrimaNota.Ru, забирай!