PrimaNota.ru - самый крупный в мире бесплатный архив песенных текстов, аккордов, табулатур и нот


Aoi Eir - End Of The Earth - таба, видео

Регистрация Запомнить меня
Войти через:  Facebook Google Twitter Vk Yandex Mail.ru

Aoi Eir - End Of The Earth - таба, видео

Печатать
Просмотров: 232
Уроки эстрадного вокала в Санкт-Петербурге
-------------------------------------------------------------------------------
                             End Of The Earth - Aoi Eir
-------------------------------------------------------------------------------

Notes: 

 - I guess this is more or less 90% accurate.
 - It's up to you on how you want to play Fig.1, use whatever you think fits the song 

better. 
 - I'm not sure on those pinch harmonics. Then again, you have the option to play whatever 

note works for you.
 - Can't do solos, solos are for Gods and I'm but a mere peasant (I suck at doing solos... 

hehehe).
 - For corrections (or for the solo) you can go ahead and copy this tab (if you think its 

ok) and add whatever is lacking.
 - I played this one by ear, no copyright infringement intended. For fun and sharing purposes 

only.
 - HAVE FUN!!!



Tuning: Drop C



Fig.1 

d|--------------------------------|     d|--------------------------------|
A|--------------------------------|     A|--------------------------------|
F|---------7-----7-----7-----5/7--|     F|---------7-----7-----7-----5/7--|
C|---------7-----7-----7-----5/7--| OR  C|---------7-----7-----7-----5/7--| 
G|---------5-----5-----5-----3/5--|     G|--------------------------------|
C|--0-0-0-----0-----0-----0-------|     C|--0-0-0-----0-----0-----0-------| 4x
    . . .     .     .     .                 . . .     .     .     .  



Fig.2


d|----------------------------------------------------------------------|
A|----------------------------------------------------------------------|
F|-----------------------------------------------------5-5-5-5-5--------|
C|--0--0--0-0-0-0----3--3--3-3-3-3----5--5--5-5-5-5----5-5-5-5-5--3--3--|
G|--0--0--0-0-0-0----3--3--3-3-3-3----5--5--5-5-5-5----3-3-3-3-3--3--3--|
C|--0--0--0-0-0-0----3--3--3-3-3-3----5--5--5-5-5-5---------------3--3--| 2x



Fig.3


d|----------------------------------------------------------------------------|
A|----------------------------------------------------------------------------|
F|----------------------------------------------------------------------------|
C|----------------------------------------------------------------------------|
G|----------------------------------------------------------------------------|
C|--0--0-0-0--0-0-0--0-0-0--0-0-0--0-0-0--0-0-0--0-0-0--0-0-0--0-0-0--0-0-0---|
    .  . . .  . . .  . . .  . . .  . . .  . . .  . . .  . . .  . . .  . . .   

                                                  
                                                   Fig 1.
d|---------------------------------------------------------------------------------|
A|---------------------------------------------------------------------------------|
F|----------------------------------------------------------7-----7-----7-----5/7--|
C|-----------------------------------------3~--5~-----------7-----7-----7-----5/7--|
G|-----------------------------------------3~--5~-----------5-----5-----5-----3/5--|
C|--0-0-0--0-0-0--0-0-0--0-0-0--0-0-0--0-0-3~--5~---0-0-0-----0-----0-----0--------|
    . . .  . . .  . . .  . . .  . . .  . .          . . .     .     .     . 
 

d|----------------------------------------------------------------------------|
A|----------------------------------------------------------------------------|
F|----------------------------------------------------------------------------|
C|----------------------------------------------------------------------------|
G|----------------------------------------------------------------------------|
C|--0--0-0-0--0-0-0--0-0-0--0-0-0--0-0-0--0-0-0--0-0-0--0-0-0--0-0-0--0-0-0---|
    .  . . .  . . .  . . .  . . .  . . .  . . .  . . .  . . .  . . .  . . .   



d|---------------------------------------------------------------------------------|
A|---------------------------------------------------------------------------------|
F|--------------------------------------------------7-----5-----7-----5-----7---5--|
C|-----------------------------------------3~--5~---7-----5-----7-----5-----7---5--|
G|-----------------------------------------3~--5~---5-----3-----5-----3-----5---3--|
C|--0-0-0--0-0-0--0-0-0--0-0-0--0-0-0--0-0-3~--5~------0-----0-----0-----0---------|
    . . .  . . .  . . .  . . .  . . .  . .             .     .     .     .


d|----------------------------------|
A|----------------------------------|
F|---7-----5-----7-----5-----7---5--|
C|---7-----5-----7-----5-----7---5--|
G|---5-----3-----5-----3-----5---3--|
C|------0-----0-----0-----0---------|
        .     .     .     .


Fig. 4 

d|---------------------------------------------------------------|
A|---------------------------------------------------------------|
F|---------------------------------------------------------------|
C|--5--5--5-5-5-5---5--5--5-5-5-5---3--2--3---*---3--2--3--2--0--|
G|--5--5--5-5-5-5---5--5--5-5-5-5---3--2--3---3---3--2--3--2--0--|
C|--5--5--5-5-5-5---5--5--5-5-5-5---3--2--3-------3--2--3--2--0--|
                                                


d|-------------------------------------------------------------|
A|-------------------------------------------------------------|
F|-------------------------------------------------------------|
C|--5--5--5-5-5-5---5--5--5-5-5-5---1--1-1--1-1---3--3-3--3-3--|
G|--5--5--5-5-5-5---5--5--5-5-5-5---1--1-1--1-1---3--3-3--3-3--|
C|--5--5--5-5-5-5---5--5--5-5-5-5---1--1-1--1-1---3--3-3--3-3--| 2x


Fig. 5 

d|-----------------------------------------------|
A|-----------------------------------------------|
F|---------------------------------------3-------|
C|---------------------------------------3---*---|
G|--5--3--0--5--3--0--5--3--0--5--3--0---1---3---|
C|--5--3--0--5--3--0--5--3--0--5--3--0-----------|
       .  .     .  .     .  .     .  .  

d|-----------------------------------------------|
A|-----------------------------------------------|
F|---------------------------------------3-------|
C|---------------------------------------3---3---|
G|--5--3--0--5--3--0--5--3--0--5--3--0---1---3---|
C|--5--3--0--5--3--0--5--3--0--5--3--0-------3---| 2x
       .  .     .  .     .  .     .  .  

Fig.3


d|----------------------------------------------------------------------------|
A|----------------------------------------------------------------------------|
F|----------------------------------------------------------------------------|
C|----------------------------------------------------------------------------|
G|----------------------------------------------------------------------------|
C|--0--0-0-0--0-0-0--0-0-0--0-0-0--0-0-0--0-0-0--0-0-0--0-0-0--0-0-0--0-0-0---|
    .  . . .  . . .  . . .  . . .  . . .  . . .  . . .  . . .  . . .  . . .   

                                                  
                                                    Fig 1.
d|---------------------------------------------------------------------------------|
A|---------------------------------------------------------------------------------|
F|----------------------------------------------------------7-----7-----7-----5/7--|
C|-----------------------------------------3~--5~-----------7-----7-----7-----5/7--|
G|-----------------------------------------3~--5~-----------5-----5-----5-----3/5--|
C|--0-0-0--0-0-0--0-0-0--0-0-0--0-0-0--0-0-3~--5~---0-0-0-----0-----0-----0--------|
    . . .  . . .  . . .  . . .  . . .  . .          . . .     .     .     . 


d|----------------------------------------------------------------------------|
A|----------------------------------------------------------------------------|
F|----------------------------------------------------------------------------|
C|----------------------------------------------------------------------------|
G|----------------------------------------------------------------------------|
C|--0--0-0-0--0-0-0--0-0-0--0-0-0--0-0-0--0-0-0--0-0-0--0-0-0--0-0-0--0-0-0---|
    .  . . .  . . .  . . .  . . .  . . .  . . .  . . .  . . .  . . .  . . .   



d|---------------------------------------------------------------------------------|
A|---------------------------------------------------------------------------------|
F|--------------------------------------------------7-----5-----7-----5-----7---5--|
C|-----------------------------------------3~--5~---7-----5-----7-----5-----7---5--|
G|-----------------------------------------3~--5~---5-----3-----5-----3-----5---3--|
C|--0-0-0--0-0-0--0-0-0--0-0-0--0-0-0--0-0-3~--5~------0-----0-----0-----0---------|
    . . .  . . .  . . .  . . .  . . .  . .             .     .     .     .


d|----------------------------------|
A|----------------------------------|
F|---7-----5-----7-----5-----7---5--|
C|---7-----5-----7-----5-----7---5--|
G|---5-----3-----5-----3-----5---3--|
C|------0-----0-----0-----0---------|
        .     .     .     .


Fig. 4 

d|---------------------------------------------------------------|
A|---------------------------------------------------------------|
F|---------------------------------------------------------------|
C|--5--5--5-5-5-5---5--5--5-5-5-5---3--2--3---*---3--2--3--2--0--|
G|--5--5--5-5-5-5---5--5--5-5-5-5---3--2--3---3---3--2--3--2--0--|
C|--5--5--5-5-5-5---5--5--5-5-5-5---3--2--3-------3--2--3--2--0--|
                                                


d|-------------------------------------------------------------|
A|-------------------------------------------------------------|
F|-------------------------------------------------------------|
C|--5--5--5-5-5-5---5--5--5-5-5-5---1--1-1--1-1---3--3-3--3-3--|
G|--5--5--5-5-5-5---5--5--5-5-5-5---1--1-1--1-1---3--3-3--3-3--|
C|--5--5--5-5-5-5---5--5--5-5-5-5---1--1-1--1-1---3--3-3--3-3--| 2x


Fig. 6


d|------------------------------------------|
A|------------------------------------------|
F|------------------------------------------|
C|--1~----3~----1~----3~----1~----3~----0~--|
G|--1~----3~----1~----3~----1~----3~----0~--|
C|--1~----3~----1~----3~----1~----3~----0~--|


Fig. 5 

d|-----------------------------------------------|
A|-----------------------------------------------|
F|---------------------------------------3-------|
C|---------------------------------------3---*---|
G|--5--3--0--5--3--0--5--3--0--5--3--0---1---3---|
C|--5--3--0--5--3--0--5--3--0--5--3--0-----------|
       .  .     .  .     .  .     .  .  

d|-----------------------------------------------|
A|-----------------------------------------------|
F|---------------------------------------3-------|
C|---------------------------------------3---3---|
G|--5--3--0--5--3--0--5--3--0--5--3--0---1---3---|
C|--5--3--0--5--3--0--5--3--0--5--3--0-------3---| 2x
       .  .     .  .     .  .     .  .  


Fig. 4a 

        
d|--------------------------------------------------------|
A|--------------------------------------------------------|
F|--------------------------------------------------------|
C|--5~-----3--2--3---*---3--2--3--2--0----5~-----1~---3~--|
G|--5~-----3--2--3---3---3--2--3--2--0----5~-----1~---3~--|
C|--5~-----3--2--3-------3--2--3--2--0----5~-----1~---3~--| 2x


Fig. 4 

d|---------------------------------------------------------------|
A|---------------------------------------------------------------|
F|---------------------------------------------------------------|
C|--5--5--5-5-5-5---5--5--5-5-5-5---3--2--3---*---3--2--3--2--0--|
G|--5--5--5-5-5-5---5--5--5-5-5-5---3--2--3---3---3--2--3--2--0--|
C|--5--5--5-5-5-5---5--5--5-5-5-5---3--2--3-------3--2--3--2--0--|
                                                


d|-------------------------------------------------------------|
A|-------------------------------------------------------------|
F|-------------------------------------------------------------|
C|--5--5--5-5-5-5---5--5--5-5-5-5---1--1-1--1-1---3--3-3--3-3--|
G|--5--5--5-5-5-5---5--5--5-5-5-5---1--1-1--1-1---3--3-3--3-3--|
C|--5--5--5-5-5-5---5--5--5-5-5-5---1--1-1--1-1---3--3-3--3-3--| 2x


Fill
                                                
d|---------------------------------|
A|---------------------------------|
F|---------------------------------|
C|--5--5--5-5-5-5---5--5--5-5-5-5--|
G|--5--5--5-5-5-5---5--5--5-5-5-5--|
C|--5--5--5-5-5-5---5--5--5-5-5-5--|


Fig. 4 

d|---------------------------------------------------------------|
A|---------------------------------------------------------------|
F|---------------------------------------------------------------|
C|--5--5--5-5-5-5---5--5--5-5-5-5---3--2--3---*---3--2--3--2--0--|
G|--5--5--5-5-5-5---5--5--5-5-5-5---3--2--3---3---3--2--3--2--0--|
C|--5--5--5-5-5-5---5--5--5-5-5-5---3--2--3-------3--2--3--2--0--|
                                                


d|-------------------------------------------------------------|
A|-------------------------------------------------------------|
F|-------------------------------------------------------------|
C|--5--5--5-5-5-5---5--5--5-5-5-5---1--1-1--1-1---3--3-3--3-3--|
G|--5--5--5-5-5-5---5--5--5-5-5-5---1--1-1--1-1---3--3-3--3-3--|
C|--5--5--5-5-5-5---5--5--5-5-5-5---1--1-1--1-1---3--3-3--3-3--| 2x


Fill 
                                                
d|---------------------------------|
A|---------------------------------|
F|---------------------------------|
C|--5--5--5-5-5-5---5--5--5-5-5-5--|
G|--5--5--5-5-5-5---5--5--5-5-5-5--|
C|--5--5--5-5-5-5---5--5--5-5-5-5--|


Fig.2


d|----------------------------------------------------------------------|
A|----------------------------------------------------------------------|
F|-----------------------------------------------------5-5-5-5-5--------|
C|--0--0--0-0-0-0----3--3--3-3-3-3----5--5--5-5-5-5----5-5-5-5-5--3--3--|
G|--0--0--0-0-0-0----3--3--3-3-3-3----5--5--5-5-5-5----3-3-3-3-3--3--3--|
C|--0--0--0-0-0-0----3--3--3-3-3-3----5--5--5-5-5-5---------------3--3--| 2x


Fig.1 


d|--------------------------------|     d|--------------------------------|
A|--------------------------------|     A|--------------------------------|
F|---------7-----7-----7-----5/7--|     F|---------7-----7-----7-----5/7--|
C|---------7-----7-----7-----5/7--| OR  C|---------7-----7-----7-----5/7--| 
G|---------5-----5-----5-----3/5--|     G|--------------------------------|
C|--0-0-0-----0-----0-----0-------|     C|--0-0-0-----0-----0-----0-------| 
    . . .     .     .     .                 . . .     .     .     .  


End

d|------|
A|------|
F|------|
C|--0~--|
G|--0~--|
C|--0~--|


watch how I play it here if you don't mind...

http://www.youtube.com/watch?v=4tvxeWuJH-w


JCarlo_TC@yahoo.com
Добавлено: 30.10.2013
Другие материалы по этой песне:
  • Аккорды и текст

Страница создана 30.10.2013
http://primanota.ru/aoi-eir/end-of-the-earth-chords.htm
Привет, Гость.
Предлагаем пройти революционный курс по гитаре.
Подарок от PrimaNota.Ru, забирай!