PrimaNota.ru - самый крупный в мире бесплатный архив песенных текстов, аккордов, табулатур и нот


Aoa - Moya - бас-таба, видео

Регистрация Запомнить меня
Войти через:  Facebook Google Twitter Vk Yandex Mail.ru

Aoa - Moya - бас-таба, видео

Печатать
Просмотров: 332
Уроки эстрадного вокала в Санкт-Петербурге
00:08
G|--------------------------------------------------------------------------|
D|---------1/4443--4/1010109---3/6665---------------------------------------|
A|-24------------4----------10-------6--------------------------------------|
E|---2----------------------------------------------------------------------|

00:16
                                           repeat 4x
G|------------------------------------------------------|
D|--4-4-43----------------------------------------------|
A|---------4-4-46---------------------------------------|
E|---------------4-4-467-7------------------------------|

00:46
                                       repeat 4x
G|------------------------------------------------------|
D|--4-4-443------6--------------------------------------|
A|---------4-3-8---4-6----------------------------------|
E|--------------------4-4-467-7-------------------------|

01:17
                                         repeat 2x
G|------------------------------------------------------|
D|--4-4-43----------------------------------------------|
A|---------4-4-46---------------------------------------|
E|---------------4-4-467-7------------------------------|

01:34
G|--------------------------------------------------------------------|
D|-----------------------------------------------54-------------------|
A|---4----4---6-5-4-8-6---4-6----6----------4-6-----------------------|
E|------2--------------------4-3------4-6-7---------------------------|

G|--------------------------------------------------------------------|
D|--------------------------------------------------------------------|
A|---4----4---6-5-4-8-6---4-6---6-------------------------------------|
E|------2--------------------4-3----4-6-7-----------------------------|

01:50
                                         repeat 4x
G|------------------------------------------------------|
D|--4-4-443------6--------------------------------------|
A|---------4-3-8---4-6----------------------------------|
E|--------------------4-4-467-7-------------------------|
02:21
G|--------------------------------------------------------------------------------|
D|-------------3-4-3---------------4-6--------------------------------------------|
A|-------654-46-----6------6-4~----------44--4-3--2~~10~--------------------------|
E|-4-4-4---------------1-4------------4-----4------------88888--------------------|

02:44

G|--------|    G|------------------------------------------------------|
G|--------|    D|--4-4-443------6--------------------------------------|
A|-46-----|    A|----------4-3-8---4-6-------4-6-8---------------------|
E|----4---|    E|-----------------------4-4----------------------------|

02:52
                                         repeat 4x
G|------------------------------------------------------|
D|--4-4-443------6--------------------------------------|
A|---------4-3-8---4-6----------------------------------|
E|--------------------4-4-467-7-------------------------|

03:23
G|--------------------------------------------------------------------------|
D|------1/4443---4/1010109---3/6665-----------------------------------------|
A|----4-------4-----------10-------6----4--6--8-----------------------------|
E|--------------------------------------------------------------------------|

G|--------------------------------------------------------------------------|
D|------1/4443--4/1010109---3/6665------------------------------------------|
A|----4-------4----------10-------6-----------------------------------------|
E|--------------------------------------------------------------------------|
Добавлено: 22.10.2015
Вам также может быть интересно:
Другие материалы по этой песне:
  • Аккорды и текст

Страница создана 22.10.2015
http://primanota.ru/aoa/moya-chords.htm
Привет, Гость.
Предлагаем пройти революционный курс по гитаре.
Подарок от PrimaNota.Ru, забирай!