PrimaNota.ru - самый крупный в мире бесплатный архив песенных текстов, аккордов, табулатур и нот


Anything August - Last Minute - таба, видео

Регистрация Запомнить меня
Войти через:  Facebook Google Twitter Vk Yandex Mail.ru

Anything August - Last Minute - таба, видео

Печатать
Просмотров: 125
Anything August – Last Minute

Official Band Website
http://www.anythingaugust.com/

Ok this is my second tab, and I've only been playing for about 2 years…

I just heard this song yesterday and it's pretty cool, but it had no tabs, and I wanted 
play it, so this is what I came up with…HOPE YOU LIKE IT!

Tuned in Dropped D

~  = it ring a little bit
/ = slide up
\ = slide down
o = palm mute
* = pinch harmonic (or bend it if you must)


Intro / Chorus Funky Riff  - Guitar 1

-------19--18--14------19--18--14--------|
---15---------------15-------------------|
-----------------------------------------| (do this many times)
-----------------------------------------|
-----------------------------------------|
-----------------------------------------|

(For the funky riff, keep your middle finger on the 15, and have your index finger on 
14, then use your pinky for the 18 and 19)

Intro Strumming – Guitar 2

------------------------------|
------------------------------|
------------------------------|  (each chord is strummed 16 times!)
-4--9--4--9--1--9--1--9-/-----|
-4--9--4--9--1--9--1--9-/-----|
-4--9--4--9--1--9--1--9-/-----|

Verse – Guitar 1

--------------------------------|
--------------------------------|
--------------------------------|   x1    then
-1-1-1-1-1--1/9999999999999999--|
-1-1-1-1-1--1/9999999999999999--|
-1-1-1-1-1--1/9999999999999999--|

--------------------------------|
--------------------------------|
--------------------------------|   x3
-2-2-3-4-3--1/9999999999999999--|
-1-1-1-1-1--1/9999999999999999--|
-1-1-1-1-1--1/9999999999999999--|

Intro / CHORUS Funky Riff  - Guitar 1

-------19--18--14-----19--18--14----|
---15---------------15--------------|
------------------------------------| (do this many times again)
------------------------------------|
------------------------------------|
------------------------------------|

CHORUS Strumming – Guitar 2

---------------------------------------------------------------------|
---------------------------------------------------------------------|
---------------------------------------------------------------------|
4444444444444444/9999999999999999/4444444444444444/9999999999999999--
4444444444444444/9999999999999999/4444444444444444/9999999999999999--
4444444444444444/9999999999999999/4444444444444444/9999999999999999--

Do tthis ^ONCE

--------------------------------------------------------------------------|
--------------------------------------------------------------------------|
--------------------------------------------------------------------------|
-66666666/888\4444\33333333\11111111--66666666/888\4444\33333333\11111111-|
--------------------------------------------------------------------------|
--------------------------------------------------------------------------|

Do this ^ ONCE as well    (if you know how to “quick pick”, do it because it sounds much better)


Verse 2 – Guitar 1

--------------------------------|
--------------------------------|
--------------------------------|   x1    then
-1-1-1-1-1--1/9999999999999999--|
-1-1-1-1-1--1/9999999999999999--|
-1-1-1-1-1--1/9999999999999999--|

--------------------------------|
--------------------------------|
--------------------------------|   x2
-2-2-3-4-3--1/9999999999999999--|
-1-1-1-1-1--1/9999999999999999--|
-1-1-1-1-1--1/9999999999999999—-|

------------------------------------------------|
------------------------------------------------|
------------------------------------------------|   x1
-2-2-3-4-3--1/99999999999999999999999999999999--|
-1-1-1-1-1--1/99999999999999999999999999999999--|
-1-1-1-1-1--1/99999999999999999999999999999999—-|

CHORUS AGAIN, do the same as the previous chorus

Then do this….

  o o o       o o o  (palm mute all but the 2nd 7, and 3rd 9)
-------------------------|
-------------------------|
-------------------------|
----------7--------------|   do this 4 times.
--7-9-10------10-9-7-9---|
-------------------------|

 o o o    o o    o o    o o    o
---------------------------------------|
-------10-----11-----10-----11---10*---|
-9-9-9----9-9----9-9----9-9----9-------|
---------------------------------------|    do this twice
---------------------------------------|
---------------------------------------|

  o  o  o      o   o   o
---------------------------------------|
---------------------------------------|
---------------------------------------|
------------7--------------------------|    do this 2 times.
--7--9--10-----10--9-7--9--------------|
---------------------------------------|


--------------------------------------------|
--------------------------------------------|
---------------/-10~ --11~ -----------------|    do this ONCE
-/-11~ -\--9~ ------------------------------|
--------------------------------------------|
--------------------------------------------|


              oooooooooooooooooooooooooooooooo
-------------------------------------------------|
-------------------------------------------------|
-------------------------------------------------|   x1    then
-1-1-1-1-1--1/99999999999999999999999999999999---|
-1-1-1-1-1--1/99999999999999999999999999999999---|
-1-1-1-1-1--1/99999999999999999999999999999999---|

END WITH THE CHORUS

That is all, I'm a lazy tabber, but you should be able to figure out the whole song with 
I gave you.

Cherio

This song was tabbed by eMpTy, aka Chest, aka Donkey Djck, aka Choda Monkey
March 2nd, 2007
Добавлено: 10.03.2012
Вам также может быть интересно:
Другие материалы по этой песне:

Страница создана 10.03.2012
http://primanota.ru/anything-august/last-minute-chords.htm
Привет, Гость.
Предлагаем пройти революционный курс по гитаре.
Подарок от PrimaNota.Ru, забирай!