PrimaNota.ru - самый крупный в мире бесплатный архив песенных текстов, аккордов, табулатур и нот


Anvil - Tag Team - текст песни, таба, видео

Регистрация Запомнить меня
Войти через:  Facebook Google Twitter Vk Yandex Mail.ru

Anvil - Tag Team - текст песни, таба, видео

Печатать
Просмотров: 210
Авторы: Robb Reiner, Dave Allison, Ian Dickson, Steve "Lips" Kudlow

Band: Anvil
Song: Tag Team
Album: Metal on Metal

I do not include the leads, but all of the riffs and structure of them are here


Tuning: E Standard

Intro:
e|---------------------------------------------------------------------------|
B|---------------------------------------------------------------------------|
G|---12--11--7\---9---9-----12--11---14----14--12----------------------------|
D|---12--11--7\---9---9-----12--11---14----14--12----------------------------|
A|---10--9---5\---7---7-----10--9----12----12--10----------------------------|
E|---------------------------------------------------------------------------|

e|---------------------------------------------------------------------------|
B|---------------------------------------------------------------------------|
G|---12--11--7\---9---9-----12--11--7---5----5--7----------------------------|
D|---12--11--7\---9---9-----12--11--7---5----5--7----------------------------|
A|---10--9---5\---7---7-----10--9---5---3----3--5----------------------------|
E|---------------------------------------------------------------------------|

e|---------------------------------------------------------------------------|
B|---------------------------------------------------------------------------|
G|---12--11--7\---9---9-----12--11---14----14--12----------------------------|
D|---12--11--7\---9---9-----12--11---14----14--12----------------------------|
A|---10--9---5\---7---7-----10--9----12----12--10----------------------------|
E|---------------------------------------------------------------------------|

e|---------------------------------------------------------------------------|
B|---------------------------------------------------------------------------|
G|---12--11--7\---9---9-----12--11--7---5----5--7----------------------------|
D|---12--11--7\---9---9-----12--11--7---5----5--7----------------------------|
A|---10--9---5\---7---7-----10--9---5---3----3--5----------------------------|
E|---------------------------------------------------------------------------|


Verse 1:
e|---------------------------------------------------------------------------|
B|---------------------------------------------------------------------------|
G|---9---9---9---9---9---9----9---12-11--------------------------------------|
D|---9---9---9---9---9---9----9---12-11--------------------------------------|
A|---7---7---7---7---7---7----7---10-9---------------------------------------|
E|---------------------------------------------------------------------------|

e|---------------------------------------------------------------------------|
B|---------------------------------------------------------------------------|
G|---9---9---9---9---9---9----9---14----14-12--------------------------------|
D|---9---9---9---9---9---9----9---14----14-12--------------------------------|
A|---7---7---7---7---7---7----7---12----12-10--------------------------------|
E|---------------------------------------------------------------------------|

e|---------------------------------------------------------------------------|
B|---10----10----10----10----10----10----10---12-11--------------------------|
G|---9-----9-----9-----9-----9-----9-----9----12-11--------------------------|
D|---7-7-7-7-7-7-7-7-7-7-7-7-7-7-7-7-7-7-7----10-9---------------------------|
A|---------------------------------------------------------------------------|
E|---------------------------------------------------------------------------|
       . .   . .   . .   . .   . .   . .

e|---------------------------------------------------------------------------|
B|---10----10----10----10----10----10----10----------------------------------|
G|---9-----9-----9-----9-----9-----9-----9-----------------------------------|
D|---7-7-7-7-7-7-7-7-7-7-7-7-7-7-7-7-7-7-7----10-5---------------------------|
A|--------------------------------------------10-5---------------------------|
E|--------------------------------------------8--3---------------------------|
       . .   . .   . .   . .   . .   . .


e|---------------------------------------------------------------------------|
B|---------------------------------------------------------------------------|
G|---9-----9-----9-----9-----9-----9-----9----12-11--------------------------|
D|---9-----9-----9-----9-----9-----9-----9----12-11--------------------------|
A|---7-7-7-7-7-7-7-7-7-7-7-7-7-7-7-7-7-7-7----10-9---------------------------|
E|---------------------------------------------------------------------------|
       . .   . .   . .   . .   . .   . .

e|---------------------------------------------------------------------------|
B|---------------------------------------------------------------------------|
G|---9-----9-----9-----9-----9-----9-----9---14---14-12----------------------|
D|---9-----9-----9-----9-----9-----9-----9---14---14-12----------------------|
A|---7-7-7-7-7-7-7-7-7-7-7-7-7-7-7-7-7-7-7---12---12-10----------------------|
E|---------------------------------------------------------------------------|
       . .   . .   . .   . .   . .   . .


Intro Riff Repeated:
e|---------------------------------------------------------------------------|
B|---------------------------------------------------------------------------|
G|---12--11--7\---9---9-----12--11---14----14--12----------------------------|
D|---12--11--7\---9---9-----12--11---14----14--12----------------------------|
A|---10--9---5\---7---7-----10--9----12----12--10----------------------------|
E|---------------------------------------------------------------------------|

e|---------------------------------------------------------------------------|
B|---------------------------------------------------------------------------|
G|---12--11--7\---9---9-----12--11--7---5----5--7----------------------------|
D|---12--11--7\---9---9-----12--11--7---5----5--7----------------------------|
A|---10--9---5\---7---7-----10--9---5---3----3--5----------------------------|
E|---------------------------------------------------------------------------|

Verse 2:
e|---------------------------------------------------------------------------|
B|---------------------------------------------------------------------------|
G|---9---9---9---9---9---9----9---12-11--------------------------------------|
D|---9---9---9---9---9---9----9---12-11--------------------------------------|
A|---7---7---7---7---7---7----7---10-9---------------------------------------|
E|---------------------------------------------------------------------------|

e|---------------------------------------------------------------------------|
B|---------------------------------------------------------------------------|
G|---9---9---9---9---9---9----9---14----14-12--------------------------------|
D|---9---9---9---9---9---9----9---14----14-12--------------------------------|
A|---7---7---7---7---7---7----7---12----12-10--------------------------------|
E|---------------------------------------------------------------------------|

Chorus:
e|---------------------------------------------------------------------------|
B|---------------------------------------------------------------------------|
G|---12--11--7\---9---9-----12--11---14----14--12----------------------------|
D|---12--11--7\---9---9-----12--11---14----14--12----------------------------|
A|---10--9---5\---7---7-----10--9----12----12--10----------------------------|
E|---------------------------------------------------------------------------|

e|---------------------------------------------------------------------------|
B|---------------------------------------------------------------------------|
G|---12--11--7\---9---9-----12--11--7---5----5--7----------------------------|
D|---12--11--7\---9---9-----12--11--7---5----5--7----------------------------|
A|---10--9---5\---7---7-----10--9---5---3----3--5----------------------------|
E|---------------------------------------------------------------------------|

e|---------------------------------------------------------------------------|
B|---------------------------------------------------------------------------|
G|---12--11--7\---9---9-----12--11---14----14--12----------------------------|
D|---12--11--7\---9---9-----12--11---14----14--12----------------------------|
A|---10--9---5\---7---7-----10--9----12----12--10----------------------------|
E|---------------------------------------------------------------------------|

e|---------------------------------------------------------------------------|
B|---------------------------------------------------------------------------|
G|---12--11--7\---9---9-----12--11--7---5----5--7----------------------------|
D|---12--11--7\---9---9-----12--11--7---5----5--7----------------------------|
A|---10--9---5\---7---7-----10--9---5---3----3--5----------------------------|
E|---------------------------------------------------------------------------|

Interlude:
e|---------------------------------------------------------------------------|
B|---------------------------------------------------------------------------|
G|---4---4---4---4---5-4---------5---5---5---5-------------------------------|
D|---4---4---4---4---5-4-5-2-----5---5---5---5---7-7-7-4---------------------|
A|---2---2---2---2---3-2-5-2-----3---3---3---3---7-7-7-4---------------------|
E|-----------------------3-0---------------------5-5-5-2---------------------|

e|---------------------------------------------------------------------------|
B|---------------------------------------------------------------------------|
G|---4---4---4---4---5-4---------5-5-5-5-5-5-5-7-----------------------------|
D|---4---4---4---4---5-4-5-2-----5-5-5-5-5-5-5-7-----------------------------|
A|---2---2---2---2---3-2-5-2-----3-3-3-3-3-3-3-5-----------------------------|
E|-----------------------3-0-------------------------------------------------|

Solo Rhythm (Repeat throughout)
e|---------------------------------------------------------------------------|
B|---------------------------------------------------------------------------|
G|---9---9---9---9---9---9----9---14-12--------------------------------------|
D|---9---9---9---9---9---9----9---14-12--------------------------------------|
A|---7---7---7---7---7---7----7---12-10--------------------------------------|
E|---------------------------------------------------------------------------|

End solo rhythm with:
e|---------------------------------------------------------------------------|
B|---------------------------------------------------------------------------|
G|---9---9---9---9---9---9----9---5-7==--------------------------------------|
D|---9---9---9---9---9---9----9---5-7==--------------------------------------|
A|---7---7---7---7---7---7----7---3-5==--------------------------------------|
E|---------------------------------------------------------------------------|

Verse 3:
e|---------------------------------------------------------------------------|
B|---------------------------------------------------------------------------|
G|---9---9---9---9---9---9----9---12-11--------------------------------------|
D|---9---9---9---9---9---9----9---12-11--------------------------------------|
A|---7---7---7---7---7---7----7---10-9---------------------------------------|
E|---------------------------------------------------------------------------|

e|---------------------------------------------------------------------------|
B|---------------------------------------------------------------------------|
G|---9---9---9---9---9---9----9---14----14-12--------------------------------|
D|---9---9---9---9---9---9----9---14----14-12--------------------------------|
A|---7---7---7---7---7---7----7---12----12-10--------------------------------|
E|---------------------------------------------------------------------------|

e|---------------------------------------------------------------------------|
B|---10----10----10----10----10----10----10---12-11--------------------------|
G|---9-----9-----9-----9-----9-----9-----9----12-11--------------------------|
D|---7-7-7-7-7-7-7-7-7-7-7-7-7-7-7-7-7-7-7----10-9---------------------------|
A|---------------------------------------------------------------------------|
E|---------------------------------------------------------------------------|
       . .   . .   . .   . .   . .   . .

e|---------------------------------------------------------------------------|
B|---10----10----10----10----10----10----10----------------------------------|
G|---9-----9-----9-----9-----9-----9-----9-----------------------------------|
D|---7-7-7-7-7-7-7-7-7-7-7-7-7-7-7-7-7-7-7----10-5---------------------------|
A|--------------------------------------------10-5---------------------------|
E|--------------------------------------------8--3---------------------------|
       . .   . .   . .   . .   . .   . .


e|---------------------------------------------------------------------------|
B|---------------------------------------------------------------------------|
G|---9-----9-----9-----9-----9-----9-----9----12-11--------------------------|
D|---9-----9-----9-----9-----9-----9-----9----12-11--------------------------|
A|---7-7-7-7-7-7-7-7-7-7-7-7-7-7-7-7-7-7-7----10-9---------------------------|
E|---------------------------------------------------------------------------|
       . .   . .   . .   . .   . .   . .

e|---------------------------------------------------------------------------|
B|---------------------------------------------------------------------------|
G|---9-----9-----9-----9-----9-----9-----9---14---14-12----------------------|
D|---9-----9-----9-----9-----9-----9-----9---14---14-12----------------------|
A|---7-7-7-7-7-7-7-7-7-7-7-7-7-7-7-7-7-7-7---12---12-10----------------------|
E|---------------------------------------------------------------------------|
       . .   . .   . .   . .   . .   . .



Intro:
e|---------------------------------------------------------------------------|
B|---------------------------------------------------------------------------|
G|---12--11--7\---9---9-----12--11---14----14--12----------------------------|
D|---12--11--7\---9---9-----12--11---14----14--12----------------------------|
A|---10--9---5\---7---7-----10--9----12----12--10----------------------------|
E|---------------------------------------------------------------------------|

e|---------------------------------------------------------------------------|
B|---------------------------------------------------------------------------|
G|---12--11--7\---9---9-----12--11--7---5----5--7----------------------------|
D|---12--11--7\---9---9-----12--11--7---5----5--7----------------------------|
A|---10--9---5\---7---7-----10--9---5---3----3--5----------------------------|
E|---------------------------------------------------------------------------|

Interlude Repeated:
e|---------------------------------------------------------------------------|
B|---------------------------------------------------------------------------|
G|---4---4---4---4---5-4---------5-5-5-5-5-5-5-7-----------------------------|
D|---4---4---4---4---5-4-5-2-----5-5-5-5-5-5-5-7-----------------------------|
A|---2---2---2---2---3-2-5-2-----3-3-3-3-3-3-3-5-----------------------------|
E|-----------------------3-0-------------------------------------------------|

Chorus Until Fadeout:
e|---------------------------------------------------------------------------|
B|---------------------------------------------------------------------------|
G|---12--11--7\---9---9-----12--11---14----14--12----------------------------|
D|---12--11--7\---9---9-----12--11---14----14--12----------------------------|
A|---10--9---5\---7---7-----10--9----12----12--10----------------------------|
E|---------------------------------------------------------------------------|

e|---------------------------------------------------------------------------|
B|---------------------------------------------------------------------------|
G|---12--11--7\---9---9-----12--11--7---5----5--7----------------------------|
D|---12--11--7\---9---9-----12--11--7---5----5--7----------------------------|
A|---10--9---5\---7---7-----10--9---5---3----3--5----------------------------|
E|---------------------------------------------------------------------------|

e|---------------------------------------------------------------------------|
B|---------------------------------------------------------------------------|
G|---12--11--7\---9---9-----12--11---14----14--12----------------------------|
D|---12--11--7\---9---9-----12--11---14----14--12----------------------------|
A|---10--9---5\---7---7-----10--9----12----12--10----------------------------|
E|---------------------------------------------------------------------------|

e|---------------------------------------------------------------------------|
B|---------------------------------------------------------------------------|
G|---12--11--7\---9---9-----12--11--7---5----5--7----------------------------|
D|---12--11--7\---9---9-----12--11--7---5----5--7----------------------------|
A|---10--9---5\---7---7-----10--9---5---3----3--5----------------------------|
E|---------------------------------------------------------------------------|


************************************

| =   sustain note
| .   palm mute
| /   slide up
| \   slide down
| h   hammer-on
| p   pull-off
| ~   vibrato
| +   harmonic
| x   Mute note
| b   Bend
| pb  Pre-bend
| br  Bend release
| pbr Pre-bend release
| brb Bend release bend

************************************
Добавлено: 19.07.2012
Другие материалы по этой песне:
  • Аккорды и текст

Страница создана 07.04.2012
http://primanota.ru/anvil/tag-team-chords.htm
Привет, Гость.
Предлагаем пройти революционный курс по гитаре.
Подарок от PrimaNota.Ru, забирай!