PrimaNota.ru - самый крупный в мире бесплатный архив песенных текстов, аккордов, табулатур и нот


Anvil - Never Deceive Me - текст песни, таба, видео

Регистрация Запомнить меня
Войти через:  Facebook Google Twitter Vk Yandex Mail.ru

Anvil - Never Deceive Me - текст песни, таба, видео

Печатать
Просмотров: 128
Авторы: Robb Reiner, Dave Allison, Ian Dickson, Steve "Lips" Kudlow

-----------------------------------------------------------------------------
			     NEVER DECEIVE ME - Anvil
-----------------------------------------------------------------------------
Tabbed by: Benjamin Gheysels
Date: 2007-7-19
Album: Forged in fire

Tuning: standard tuning

| h  hammer-on
| p  pull-off
| ~  vibrato
| b  bend
| .  mute note
| ps pick scrape


Use distortion.

I've added between brackets when a riff starts.


Riff 1: play this twice
e|--------------------------------------------------------------------------|
B|--------------------------------------------------------------------------|
G|--------------------------------------------------------------------------|
D|---------------------------------------2----------------4-----------------|
A|---------------------4-----------------2ring+stop-------2ring--------4ring|
E|-0-2-0-5-4-2-0-0-2-0-2ring+stop--0-2-0-0-----------0-2-0-------0-2-0-2----|
   . . . . . . . . . .


Riff 2 (29"):
e|--------------------------------------------------------------------------|
B|--------------------------------------------------------------------------|
G|---------------------4----------------------------------------------------|
D|--7-7-6-2----------4----4-------7-7-6-2-------5------5-5------5-4---------|
A|--5-5-4-0stop----2------4stop---5-5-4-0stop---5ring--5-3ring--3-2ring-----|
E|------------------------2---------------------3------3--------------------|


Riff 1 (41"): play this twice
e|--------------------------------------------------------------------------|
B|--------------------------------------------------------------------------|
G|--------------------------------------------------------------------------|
D|---------------------------------------2----------------4-----------------|
A|---------------------4-----------------2ring+stop-------2ring--------4ring|
E|-0-2-0-5-4-2-0-0-2-0-2ring+stop--0-2-0-0-----------0-2-0-------0-2-0-2----|
   . . . . . . . . . . 


Riff 2 (1'06"):
e|--------------------------------------------------------------------------|
B|--------------------------------------------------------------------------|
G|---------------------4----------------------------------------------------|
D|--7-7-6-2----------4----4-------7-7-6-2-------5------5-5------5-4---------|
A|--5-5-4-0stop----2------4stop---5-5-4-0stop---5ring--5-3ring--3-2ring-----|
E|------------------------2---------------------3------3--------------------|


Solo 1 (1'19"): this is not accurate!

e|--------------------------------------------------------------------------|
B|--------------10-10h12p10-----------10-12-14p12p10-12-10-12b12b-12--------|
G|-------------------------11hold---11------------------------------14------|
D|--------------------------------------------------------------------14hold|
A|7-9-7-9-7-9-7-------------------------------------------------------------|
E|--------------------------------------------------------------------------|


e|--------------------------------------------------------------------------|
B|----------------------------------------10-12-14p12p10-12-10-11b-10-------|
G|---9-11-11p9--9-11p9-11p9-11--9-10b---11--------------------9------9hold--|
D|-11---------11--------------11--------------------------------------------|
A|--------------------------------------------------------------------------|
E|--------------------------------------------------------------------------|

		  ____ mark
		  |
e|----------------|--14-14hold----14-16-17-16-14h16----14b14b-13b13b--------|
B|-12-12-12hold---|------------17-------------------17----------------------|
G|----------------|---------------------------------------------------------|
D|----------------|---------------------------------------------------------|
A|----------------|---------------------------------------------------------|
E|----------------|---------------------------------------------------------|


e|--12p11p9-----------------------------------------------------------------|
B|----------12p11p9----------------9----------------------------------------|
G|------------------11p9p8-----------11-9-11hold----------------------------|
D|-------------------------11p9p8-------------------------------------------|
A|--------------------------------------------------------------------------|
E|--------------------------------------------------------------------------|

				    mark  ____
					     |
e|------------------------9hold--------------|----9hold---------------------|
B|----9-10-12-10-12-10-12--------12p10-------|--12------12-10-12p10----10~--|
G|--11---------------------------------9hold-|----------------------11------|
D|-------------------------------------------|------------------------------|
A|-------------------------------------------|------------------------------|
E|-------------------------------------------|------------------------------|


Repeat marked part, then this

e|-------------------12-----------------------------------------------------|
B|--12p10h12hold---14--14-12-12h14p12--12---14-14-14-12-9-9/12-12-12~-------|
G|-----------------------------------14-------------------------------------|
D|--------------------------------------------------------------------------|
A|--------------------------------------------------------------------------|
E|--------------------------------------------------------------------------|


Riff 3: background for solo 1. Repeat 6 times (first 2 times: play stop)
e|--------------------------------------------------------------------------|
B|--------------------------------------------------------------------------|
G|--------------------------------------------------------------------------|
D|--------------------------------------------------2-----------------------|
A|----------------------4(stop)---------------------2(stop)-----------------|
E|--0-2-0-5-4-2-0-0-2-0-2-------0-2-0-5-4-2-0-0-2-0-0-----------------------|


then this:
e|--------------------------------------------------------------------------|
B|--------------------------------------------------------------------------|
G|--------------------------------------------------------------------------|
D|--7-7--7-6-2-4-4-4--------------------------------------------------------|
A|--5-5--5-4-0-2-2-2--------------------------------------------------------|
E|--------------------------------------------------------------------------|


Riff 1 (2'04"): play this twice
e|--------------------------------------------------------------------------|
B|--------------------------------------------------------------------------|
G|--------------------------------------------------------------------------|
D|---------------------------------------2----------------4-----------------|
A|---------------------4-----------------2ring+stop-------2ring--------4ring|
E|-0-2-0-5-4-2-0-0-2-0-2ring+stop--0-2-0-0-----------0-2-0-------0-2-0-2----|
   . . . . . . . . . . 


Riff 2 (2'28"):
e|--------------------------------------------------------------------------|
B|--------------------------------------------------------------------------|
G|---------------------4----------------------------------------------------|
D|--7-7-6-2----------4----4-------7-7-6-2-------5------5-5------5-4---------|
A|--5-5-4-0stop----2------4stop---5-5-4-0stop---5ring--5-3ring--3-2ring-----|
E|------------------------2---------------------3------3--------------------|


Solo 2: repeat marked part of solo 1, but add minor changes at the end


Riff 3' (2'41"): repeat till fade out (no stops this time)
e|--------------------------------------------------------------------------|
B|--------------------------------------------------------------------------|
G|--------------------------------------------------------------------------|
D|----------------------------------------------2----7-7--7-6-2-4-4-4-------|
A|----------------------4-----------------------2----5-5--5-4-0-2-2-2-------|
E|--0-2-0-5-4-2-0-0-2-0-2---0-2-0-5-4-2-0-0-2-0-0---------------------------|


That's it! Enjoy!

Structure:

-riff 1: 2x
-riff 2 (chorus)
-riff 1: 2x
-riff 2 (chorus)
-solo 1 + riff 3
-riff 1: 2x
-riff 2 (chorus)
-solo 2 + riff 3'

============================================================================

============================================================================
Добавлено: 21.02.2012
Другие материалы по этой песне:
  • Аккорды и текст

Страница создана 21.02.2012
http://primanota.ru/anvil/never-deceive-me-chords.htm
Привет, Гость.
Предлагаем пройти революционный курс по гитаре.
Подарок от PrimaNota.Ru, забирай!