PrimaNota.ru - самый крупный в мире бесплатный архив песенных текстов, аккордов, табулатур и нот


Anvil - Metal On Metal - текст песни, таба, бас-таба, видео

Регистрация Запомнить меня
Войти через:  Facebook Google Twitter Vk Yandex Mail.ru

Anvil - Metal On Metal - текст песни, таба, бас-таба, видео

Печатать
Просмотров: 459
Уроки эстрадного вокала в Санкт-Петербурге
Авторы: Anvil

Metal On Metal - Anvil

badass solo real bluesy love it and there was pretty much not
one tab of the solo on here so here ya go

I DID NOT EAR THIS TAB
i got it out guitar pro but not everybody has that program
so i tabbed it
im like robin hood steal from the rich and give to the poor

Standard tuning

e--------------------------------13----------|
b-13--13--13--13--13-----------13---16p13----|
g-15B-15B-15B-15B-15B-13-15-15B-----------15-|
d--------------------------------------------|
a--------------------------------------------|
e--------------------------------------------|

e-----------------------------------------|
b-----------------------------------------|
g-15B(17)-13----15----15B(17)-13-15p13----|
d------------15----15------------------14-|
a-----------------------------------------|
e-----------------------------------------|

e-----13-------13--------------------------------|
b-------13--------13---16-16B-18-16-18-16--------|
g-15B-----15B--------x--------------------17-15B-|
d------------------------------------------------|
a------------------------------------------------|
e------------------------------------------------|

e--------13----------------------------------------|
b-----13----13-16p13----13-15p13----13----15-13----|
g-15B----------------15----------15----15-------14-|
d--------------------------------------------------|
a--------------------------------------------------|
e--------------------------------------------------|

e-------------------------------------------|
b-------------------------------------------|
g----------------------13-------------------|
d-15----13-15----13-15----15-13-15-13-15----|
a----15-------15-------------------------13-|
e-------------------------------------------|

e-------------------------------|
b--------------16---------------|
g-------13-15B----15B-13-15B----|
d-13h15----------------------14-|
a-------------------------------|
e-------------------------------|

e-----13131313-16p13-13131313-13--|
b-13--13131313-------13131313-16B-|
g-15B-----------------------------|
d---------------------------------|
a---------------------------------|
e---------------------------------|

e------------------------|
b-18-16-18-16------------|
g-------------15-15B(17)-|
d------------------------|
a------------------------|
e------------------------|

e-----13131313-16p13-13131313-----------------------|
b-13--13131313-------13131313-13--------------------|
g-15B----------------------------15-13----15-13-----|
d--------------------------------------15--------14-|
a---------------------------------------------------|
e---------------------------------------------------|
Добавлено: 25.05.2012
Другие материалы по этой песне:

Страница создана 04.03.2012
http://primanota.ru/anvil/metal-on-metal-chords.htm
Привет, Гость.
Предлагаем пройти революционный курс по гитаре.
Подарок от PrimaNota.Ru, забирай!