PrimaNota.ru - самый крупный в мире бесплатный архив песенных текстов, аккордов, табулатур и нот


Antony And The Johnsons - If It Be Your Will - таба, видео

Регистрация Запомнить меня
Войти через:  Facebook Google Twitter Vk Yandex Mail.ru

Antony And The Johnsons - If It Be Your Will - таба, видео

Печатать
Просмотров: 138
    ______________________________
   / Antony                       /
  / If It Be Your Will           /
 / Leonard Cohen: I'm Your Man  /
/______________________________/  This is the main electric guitar part.


Intro:
 slow 6/8
 E            F#m          D            E
|------------|------------|------------|------------|
|------------|------------|------3-----|------------|
|------1-----|------2-----|----2---2---|------1-----|
|----2---2---|----4---4---|--4-------4-|----2---2---|
|--2-------2-|--4-------4-|5-----------|--2-------2-|
|0-----------|2-----------|------------|0-----------|

Verse:
 E            F#m          D            C#m
|------------|------------|------2-----|------------|
|------------|------------|----3---3---|------5-----|
|------1-----|------2-----|--2-------2-|----6---6---|
|----2---2---|----4---4---|0-----------|--6-------6-|
|--2-------2-|--4-------4-|------------|4-----------|
|0-----------|2-----------|------------|------------|

 E            F#m          A            E
|------------|------------|------------|------------|
|------------|------------|------2-----|------------|
|------1-----|------2-----|----2---2---|------1-----|
|----2---2---|----4---4---|--2-------2-|----2---2---|
|--2-------2-|--4-------4-|0-----------|--2-------2-|
|0-----------|2-----------|------------|0-----------|

 C#m          B            C#m          B
|------------|------------|------------|------------|
|------5-----|------4-----|------5-----|------4-----|
|----6---6---|----4---4---|----6---6---|----4---4---|
|--6-------6-|--4-------4-|--6-------6-|--4-------4-|
|4-----------|2-----------|4-----------|2-----------|
|------------|------------|------------|------------|

 A            E            B            B
|------------|------------|------------|------------|
|------2-----|------------|------4-----|------4-----|
|----2---2---|------1-----|----4---4---|----4---4---|
|--2-------2-|----2---2---|--4-------4-|--4-------4-|
|0-----------|--2-------2-|2-----------|2-----------|
|------------|0-----------|------------|------------|



 LYIRCS                                          Form
*****************************************      *********************************
                                                 Intro

If it be your will                               Verse
That I speak no more 
And my voice be still 
As it was before 
I will speak no more 
I shall abide until 
I am spoken for 
If it be your will 

If it be your will                                Verse
That a voice be true 
From this broken hill 
I will sing to you 
From this broken hill 
All your praises they shall ring 
If it be your will 
To let me sing 

[tenor saxophone solo]                            Verse
From this broken hill                             (first half: solo)
All your praises they shall ring                  (second half: lyrics)
If it be your will 
To let me sing 

If it be your will                                Verse
If there is a choice 
Let the rivers fill 
Let the hills rejoice 
Let your mercy spill 
On all these burning hearts in hell 
If it be your will 
To make us well 

And draw us near                                  Verse
And bind us tight 
All your children here 
In their rags of light 
In our rags of light 
All dressed to kill 
And end this night 
If it be your will 

And end this night                                Repeat the last 4 bars ad.lib.
If it be your will.


+--------------------------------------------------------------------------+
Jon Sebastian Frederiksen - 29th /September /2012
Just mail me at Maitinin@gmail.com with questions, comments and corrections!
Добавлено: 31.10.2013
Другие материалы по этой песне:
  • Аккорды и текст

Страница создана 31.10.2013
http://primanota.ru/antony-and-the-johnsons/if-it-be-your-will-chords.htm
Привет, Гость.
Предлагаем пройти революционный курс по гитаре.
Подарок от PrimaNota.Ru, забирай!