PrimaNota.ru - самый крупный в мире бесплатный архив песенных текстов, аккордов, табулатур и нот


Вивальди Антонио - Концерт в D 3-ая часть, Аллегро - аккорды и текст, видео

Регистрация Запомнить меня
Войти через:  Facebook Google Twitter Vk Yandex Mail.ru

Вивальди Антонио - Концерт в D 3-ая часть, Аллегро - аккорды и текст, видео

Печатать
Просмотров: 198
Концерт в D 3-ая часть, Аллегро
Вивальди Антонио
E||----5-----5-----5-----5---|----5-----5-------------|
B||--7---7-5---5-7---7-5---5-|--7---7-7---7-5-------5-|
G||--------------------------|-----------------2------|
D||--0-----------0-----------|--0-----0----------2----|
A||--------0-----------0-----|--------------0-------0-|
E||--------------------------|------------------------|
 
E|---5-----5-----7-----7---|----3-----3-----5-----5---|
B|-7---7-7---7-7---7-7---7-|--5---5-5---5-5---5-5---5-|
G|-------------------------|--------------------------|
D|-0-----0-----0-----0-----|--------------------------|
A|-------------------------|--4-----4-----4-----4-----|
E|-------------------------|--------------------------|

E|---2-----2-----3-----3---|----3-----5-----3-----5---|
B|-3---3-3---3-3---3-3---3-|--5---5-7---7-5---5-7---5-|
G|-------------------------|--------------------------|
D|-------------------------|--------------------------|
A|-2-----2-----2-----2-----|--0-----0-----0-----0-----|
E|-------------------------|--------------------------|

E|---3-----5-----3-----5---|--2---------5-----5---|
B|-5---5-7---7-5---5-7---7-|-------7--7---7-7---7-|
G|-------------------------|----------7-----------|
D|-------------------------|--0-------------0-----|
A|-0-----0-----0-----0-----|----------------------|
E|-------------------------|----------------------|

E|----7-----7---------------|-2---2-5---5-2---2-5---5-|
B|--8---8-8---8-5-8-5-5-8-5-|---3-----5-----3-----5---|
G|--0-----0-----6-----6-----|-------------------------|
D|--------------------------|-0-----------0-----------|
A|--------------------------|-------4-----------4-----|
E|--------------------------|-------------------------|

E|----------5-7---7-7---7-|--------------5---5-5---5-|
B|--7-----------8-----8---|--5---5-5---5---7-----7---|
G|-----7------0-----0-----|----6-----6---------------|
D|--0-------0-------------|--------------4-----4-----|
A|-----7-9----------------|--4-----4-----------------|
E|------------------------|--------------------------|

E|-------------3---3-3---3-|--------------2---2-2---2-|
B|-3---3-3---3---5-----5---|--2---2-2---2---3-----3---|
G|---4-----4---------------|----2-----2---------------|
D|-------------2-----2-----|--------------0-----0-----|
A|-2-----2-----------------|--0-----0-----------------|
E|-------------------------|--------------------------|

E|-4-4-4-4-4-4-5-5-5-5-5-5-|--4-4-4-4-4-4-5-5-5-5-5-5-|
B|-3-3-3-3-3-3-2-2-2-2-2-2-|--3-3-3-3-3-3-2-2-2-2-2-2-|
G|-4-4-4-4-4-4-2-2-2-2-2-2-|--4-4-4-4-4-4-2-2-2-2-2-2-|
D|-2-2-2-2-2-2-2-2-2-2-2-2-|--2-2-2-2-2-2-2-2-2-2-2-2-|
A|-------------0-0-0-0-0-0-|--------------0-0-0-0-0-0-|
E|-------------------------|--------------------------|

E|--4-4-4-4-4-4-5-|---0-----0-----0-----0---|
B|--3-3-3-3-3-3-2-|-2---2-0---0-2---2-0---0-|
G|--4-4-4-4-4-4-2-|-------------------------|
D|--2-2-2-2-2-2-2-|-------2-----------2-----|
A|--------------0-|-0-----------0-----------|
E|----------------|-------------------------|

E|--------------2-----2---|----2-----2-----------2-|
B|--2---------3---3-2---2-|--3---3-2---2-3--0----0-|
G|-----2------------------|------------------------|
D|------------------4-----|--------4---------------|
A|--0--0-1--1-2-----------|--2-----------2--2-2----|
E|------------------------|------------------------|

E|-7---7-7---7---7----------|--5---5-5---5---5---------|
B|---7-----7---8---10-8-7-5-|----5-----5---7---8-7-5---|
G|-8---8-8---8-9---9--9-----|--6---6-6---6-7---7-7---7-|
D|--------------------------|--------------------------|
A|--------------------------|--------------------------|
E|--------------------------|--------------------------|

E|-3---3-3---3---3-2-0-----|------7-----7-----7---2-6-|
B|---3-----3---5---2---3-2-|----7-----7-----7---2-----|
G|-4---4-4---4-6-----------|--7-----7-----6-----------|
D|-------------------4---4-|--9---9-------4---4-------|
A|-------------------------|--------------------------|
E|-------------------------|--------7---7-------2---2-|

E|--7-----------5-----5---|---5-----5-----5-----5---|
B|------------7---7-5---5-|-7---7-5---5-7---7-7---7-|
G|------------------------|-------------------------|
D|------------0-----------|-0-----------0-----0-----|
A|-------4--4-------0-----|-------0-----------------|
E|--7--7------------------|-------------------------|

E|-------------10-10-10-10-10-10-|-7-10-9-7------9-9-9-9-9-9-|
B|--5-------10-------------------|----------10-8-------------|
G|-------------------------------|-0------0------------------|
D|-----7-7-----------------------|---------------------------|
A|--0-------10-9-----9--9-----9--|---------------7---7-7---7-|
E|-------------------------------|---------------------------|

E|-----9-------------7-7-7-7-7-7-|---7----------5-5-5-5-5-5-|
B|--10---12-10-------------------|-8---10-8-7---------------|
G|-------------12-11-------------|------------9-------------|
D|-------------------0---0-0---0-|--------------------------|
A|--9-------9--------------------|-7------7-----4---4-4---4-|
E|-------------------------------|--------------------------|

E|--2-5-3-2-----5-5-5-5-5-5-|-2-5-3-2-------3-2-------|
B|----------5-3-------------|---------5-3-5-----5-3-2-|
G|--------------------------|-------------2-----------|
D|--0-----0-----------------|-0-----0-----------------|
A|--------------4---4-4---4-|-------------------0-----|
E|--------------------------|-------------------------|

E|----5-----5-----------5---|--2-3-5-2-3-----|
B|------7-5---5-7-5-7-5---5-|------------5-3-|
G|--7-----------------------|--------2-------|
D|--0---0-------0---0-------|--0---0-------0-|
A|--------0---0-------0---0-|------------0---|
E|--------------------------|----------------|
Добавлено: 13.09.2013
Другие материалы по этой песне:
  • Аккорды и текст

Страница создана 13.09.2013
http://primanota.ru/antonio-vivaldi/koncert-v-d-3-aya-chast-allegro-chords.htm
Привет, Гость.
Предлагаем пройти революционный курс по гитаре.
Подарок от PrimaNota.Ru, забирай!