PrimaNota.ru - самый крупный в мире бесплатный архив песенных текстов, аккордов, табулатур и нот


Вивальди Антонио - Концерт в D 2-ая часть, Ларго - аккорды и текст, видео

Регистрация Запомнить меня
Войти через:  Facebook Google Twitter Vk Yandex Mail.ru

Вивальди Антонио - Концерт в D 2-ая часть, Ларго - аккорды и текст, видео

Печатать
Просмотров: 192
Концерт в D 2-ая часть, Ларго
Вивальди Антонио
E||-------2-3---5-|------2-5---2-|--0---------0-|------7-5---3-|
B||---3-----------|--3-----------|--2---2-3-----|--------------|
G||--2-----------|--2-----------|--2-----------|--2-----------|
D||--0-----0-----|--0-----0-----|--------------|--------------|
A||---------------|--------------|--0-----0-----|--0-----0-----|
E||---------------|--------------|--------------|--------------|

E|--2---5-----2-|-5---2-------|--0---------|-------5----|
B|--3-----3-----|-3-----5---3-|--2---------|------------|
G|--2-----------|-2-----------|--2----2----|------------|
D|--0-----0-----|-0-----0-----|------------|------------|
A|--------------|-------------|--0----0----|--0----0----|
E|--------------|-------------|------------|------------|

E|--5-----------|--5-----------|-7--5--7--7--|--7--5--7--7--|
B|--7---7-5-----|--7---7-5-----|-7-----------|--7-----------|
G|--7---------7-|--7---------7-|-0-----0-----|--0-----0-----|
D|--0-----0-----|--0-----0-----|-------------|--------------|
A|--------------|--------------|-------------|--------------|
E|--------------|--------------|-------------|--------------|

E|--7-----------|--7-----------|--5--3--5--5-|-5--3--5--5--|
B|--5--5--7--5--|--5--5--7--5--|--5----------|-5-----------|
G|--4-----------|--4-----------|-------------|-------------|
D|--------------|--------------|--4-----4----|-4-----4-----|
A|--4-----4-----|--4-----4-----|-------------|-------------|
E|--------------|--------------|-------------|-------------|

E|--5-----------|--5-----------|--4--5--7--5--|--4-----0----|
B|--3--3--5--3--|--3--3--5--3--|--0-----------|--0--7-----3-|
G|--------------|--------------|--7-----------|--7----------|
D|--------------|--------------|--------------|-------------|
A|--2-----2-----|--2-----2-----|--------------|-------------|
E|--------------|--------------|--0-----0-----|--0-----0----|

E|-------------|--------------|--5-----------|--------------|
B|-2---2-------|--5---2-------|------2-------|--5---2-------|
G|-2-----4---2-|--2-----4---2-|--2-----4---2-|--2-----4---2-|
D|-2-----------|--2-----------|--2-----------|--2-----------|
A|-0-----0-----|--0-----0-----|--0-----0-----|--0-----0-----|
E|-------------|--------------|--------------|--------------|

E|--5--7--5--7-|-5--7--5--7--|--5----4-----|--0-----------|
B|--5----------|-5-----------|--5-------7--|-----3-----0--|
G|--6----------|-6-----------|--6----------|--------6-----|
D|--7-----7----|-7-----7-----|--7----------|--------------|
A|--0----------|-0-----------|--0----------|--------------|
E|-------------|-------------|-------------|--------------|

E|--------5-----|-------4-|-0--------|-----------|
B|------5-------|--0----0-|-2--------|-----------|
G|--6---------6-|--1------|-2--------|----------|
D|--7-----------|--2----2-|-2--------|----------|
A|--7-----------|---------|-0--------|-----------|
E|--5-----5-----|--0------|----------|-----------|

E||---3---0-----0-|--3---7-3---0-|--------------|
B||---0-----0-----|--0-----0-----|------2-----2-|
G||--0-----0-----|--0-----0-----|--3-----------|
D||--------------|--------------|--4-----4-----|
A||---------------|--------------|--------------|
E||---0-----0-----|--0-----0-----|--2-----2-----|

E|-0---3-2---0-|-------------|-------2----|--2---------------|
B|-------------|--3--2-------|------------|--3---2---2---2---|
G|-3-----3-----|--4-----4----|------------|--4-4---4---4---4-|
D|-------------|--4----------|------------|----------0-------|
A|-------------|--2-----2----|--2----2----|--2-------2-------|
E|-2-----2-----|-------------|------------|------------------|

E|-2---------------|--7---------------|
B|-3---2---2---2---|--7-7-8-7-8-7-8-7-|
G|-4-4---4---4---4-|--7-------7-------|
D|---------0-------|----------9-------|
A|-2-------2-------|------------------|
E|-----------------|--7-------7-------|

E|-7---------------|--7-----------|-------------|---------|
B|-7-7-8-7-8-7-8-7-|--7--7--------|--2-------0--|--0------|
G|-7-------7-------|--7-----9--7--|--3----------|---------|
D|---------9-------|--------------|--4----4-----|--4----4-|
A|-----------------|--------------|-------------|--5----5-|
E|-7-------7-------|--7-----7-----|--2----2-----|--7----7-|

E|-----------|------2-3---5-|------2-5---2-|--0--------0--|
B|------3----|--3-----------|--3-----------|--2--2--3-----|
G|-----------|--2-----------|--2-----------|--2-----------|
D|-4---------|--0-----0-----|--0-----0-----|--------------|
A|-5----2----|--------------|--------------|--0-----0-----|
E|-7---------|--------------|--------------|--------------|

E|-----3--7--3-|-2----------|-------5----|--5--7--5-----|
B|-------------|-3--5--3----|------------|--7-----7--8--|
G|--2-----6----|-2----------|------------|--------------|
D|-------------|-0-----0----|--0----0----|--0-----0-----|
A|--0-----0----|------------|------------|--------------|
E|-------------|------------|------------|--------------|

E|--------------|----------|------7----|--7--9--7--5--|
B|--7--5--3-----|----------|-----------|--8-----------|
G|--7--------5--|--4-------|-----------|--0-----7-----|
D|--0-----4-----|-----7--5-|-----------|--------5-----|
A|--------5-----|--5-------|-----------|--------------|
E|--------------|--3-----3-|-3----3----|--------------|

E|--3--2--0-----|-------------|--------0--3-|-2---------------|
B|--0--------3--|--2--0-------|-----2--2----|-----0---0---0---|
G|-----2--0-----|--------2----|--------2----|---2---2---2---2-|
D|-----------4--|--2--0-------|-------------|-0-------0-------|
A|--------------|--0-----4----|--0-----0----|-----------------|
E|--3-----3-----|--------5----|-------------|-----------------|

E|--2---------------|--0---------------|--3---------------|
B|------0---0---0---|------0---0---0---|------0---0---0---|
G|----2---2---2---2-|--6---------------|--6---------------|
D|--0-------0-------|----7---7---7---7-|----7---7---7---7-|
A|------------------|--0-------0-------|--0-------0-------|
E|------------------|------------------|------------------|

E|-2---3-5-----|--0--2-0-2-0-2-0-2-0-------|------|------------|
B|-3---------3-|--2---------------------2--|--3---|------------|
G|-2-----------|--2------------------------|--2---|----------@-|
D|-0-----0-----|---------------------------|--4---|----------@-|
A|-------------|--0------------------0-----|--5---|------------|
E|-------------|---------------------------|------|------------|
Добавлено: 15.02.2014
Другие материалы по этой песне:
  • Аккорды и текст

Страница создана 15.02.2014
http://primanota.ru/antonio-vivaldi/koncert-v-d-2-aya-chast-largo-chords.htm
Привет, Гость.
Предлагаем пройти революционный курс по гитаре.
Подарок от PrimaNota.Ru, забирай!