PrimaNota.ru - самый крупный в мире бесплатный архив песенных текстов, аккордов, табулатур и нот


Вивальди Антонио - Концерт в Am op.3 №8 - аккорды и текст, видео

Регистрация Запомнить меня
Войти через:  Facebook Google Twitter Vk Yandex Mail.ru

Вивальди Антонио - Концерт в Am op.3 №8 - аккорды и текст, видео

Печатать
Просмотров: 178
Концерт в Am op.3 №8
Вивальди Антонио
E|-17-16--17-15-13----------------|--------17--16--17-15-13----|
B|-----------------17-15-13-------|-17----------------------17-|
G|--------------------------16-14-|----------------------------|
D|--------------------------------|----14----------------------|
A|--------------------------------|----------------------------|
E|--------------------------------|----------------------------|

E|-------------|-----------------------------|
B|-15-13-------|-17--------------------------|
G|-------16-14-|----------------13-14--14-16-|
D|-------------|-----14--14--16--------------|
A|-------------|-----------------------------|
E|-------------|-----------------------------|

E|----------------------------------------|--------------------|
B|-13-13-15-17----------------------------|-13--13--15--17-----|
G|--------------------------13-14---14-16-|--------------------|
D|-------------14--14---16----------------|-----------------14-|
A|----------------------------------------|--------------------|
E|----------------------------------------|--------------------|

2.

E|--------|---------------------------------------------|
B|--------|-18h20--18h20--18h20--18h20--18--------------|
G|-21-----|---------------------------------19----------|
D|--------|-------------------------------------21--17--|
A|--------|---------------------------------------------|
E|--------|---------------------------------------------|

E|---------------------|------------------------|
B|-17h18--17h18--17h18-|-17h18--17--------------|
G|---------------------|------------17----------|
D|---------------------|----------------19------|
A|---------------------|--------------------20--|
E|---------------------|------------------------|

E|--------------------------------------------|
B|-15h17--15h17--15h17--15h17--15-------------|
G|---------------------------------16---------|
D|-------------------------------------18--14-|
A|--------------------------------------------|
E|--------------------------------------------|

E|------------------------|-19----------------------|
B|-13------17-17-15-21-15-|----15-18-15-17-15-18-15-|
G|-----14-----------------|-------------------------|
D|------------------------|-------------------------|
A|------------------------|-------------------------|
E|------------------------|-------------------------|

E|-------19-------|----19-----|-------------------17-----|
B|-21-15----15-17-|-15----15--|-17-15-18-15-21-17----13--|
G|----------------|-----------|--------------------------|
D|----------------|-----------|--------------------------|
A|----------------|-----------|--------------------------|
E|----------------|-----------|--------------------------|

E|----17------16--17~-|
B|-12-----12----------|
G|--------------------|
D|--------------------|
A|--------------------|
E|--------------------|

3.

E|-17----17----------------15----15-----|
B|----13----13-15-13-12-15----12----12--|
G|--------------------------------------|
D|--------------------------------------|
A|--------------------------------------|
E|--------------------------------------|

E|-------------13----13---------------|-12---12----|
B|-13-12-10-13----10----10-12-10-8-12-|----8----8--|
G|------------------------------------|------------|
D|------------------------------------|------------|
A|------------------------------------|------------|
E|------------------------------------|------------|

E|-----------10-12-10-------------10-15h17p15----|-------------|
B|-10-8----8----------13-12-10----------------18-|-17-15-------|
G|------10---------------------12----------------|-------17----|
D|-----------------------------------------------|----------17-|
A|-----------------------------------------------|-------------|
E|-----------------------------------------------|-------------|

E|--------------------------------------|
B|-------------------------15-17-15-----|
G|17-19-17-16-----------------------17--|
D|------------19-17-15-19---------------|
A|--------------------------------------|
E|--------------------------------------|

E|-------------------------------------|-------------|
B|----------12-13----13-------13----13-|----13----13-|
G|-16-14-12----------------------------|-12----12----|
D|----------------14----14-15----15----|-------------|
A|-------------------------------------|-------------|
E|-------------------------------------|-------------|

E|-------------------------------------------------|
B|----13----13----13----13----13----13----13----13-|
G|-14----14----------------------------12----12----|
D|-------------14----14----15----15----------------|
A|-------------------------------------------------|
E|-------------------------------------------------|

E|-------------|-------------------------------------|----|
B|----13----13-|----13----13----13----13----12----12-|-13-|
G|-14----14----|-------------------------12----12----|----|
D|-------------|-14----14----15----15----------------|----|
A|-------------|-------------------------------------|----|
E|-------------|-------------------------------------|----|

4.

E|-----19-17-15--19--15--19--|-17--------17--------------|
B|---------------------------|-----19-20-----19------19--|
G|-16------------------------|-------------------20------|
D|---------------------------|---------------------------|
A|---------------------------|---------------------------|
E|---------------------------|---------------------------|

E|-15---19-17-15--19-|15---19--|-15-------15--------------|
B|-------------------|---------|----17-18-----17------17--|
G|-------------------|---------|------------------18------|
D|-------------------|---------|--------------------------|
A|-------------------|---------|--------------------------|
E|-------------------|---------|--------------------------|

E|-13---17-15-13--17--13--17-|-13-----|----13--------------|
B|---------------------------|-----15-|17------15------15--|
G|---------------------------|--------|------------16------|
D|---------------------------|--------|--------------------|
A|---------------------------|--------|--------------------|
E|---------------------------|--------|--------------------|

E|-12---15-13-12--15--12--15-|-13--------13-----------|----|
B|---------------------------|-----15-17----15-----15-|-13-|
G|---------------------------|------------------16----|----|
D|---------------------------|------------------------|----|
A|---------------------------|------------------------|----|
E|---------------------------|------------------------|----|

5.

E|------5---7----|-8---5---7----|-8---5---------------|
B|----5---5---5--|---5---5---5--|---5---8-6-5---------|
G|---------------|--------------|--------------7-5-4--|
D|-7-------------|--------------|---------------------|
A|---------------|--------------|---------------------|
E|---------------|--------------|---------------------|

E|-------------------|
B|-------------------|
G|-------------------|
D|-7---7-5-----------|
A|---7-----8-7-5-----|
E|---------------8-7-|

E|-0-|-0-|-0-|-0-|-1-|-6-|-4-|
B|-1-|-0-|-1-|-2-|-3-|-3-|-3-|
G|-2-|-1-|-2-|-0-|-2-|---|---|
D|---|---|---|---|---|-3-|-2-|
A|-0-|---|---|---|---|---|---|
E|---|-0-|---|---|---|---|---|

E|--5---------|--5---------|--4------|---5-|
B|------------|--0---------|--0------|-----|
G|--5---------|------------|---------|---5-|
D|------------|--2---------|--2------|-----|
A|--7---------|------------|---------|---7-|
E|------------|------------|---------|-----|
Добавлено: 16.08.2013
http://primanota.ru/antonio-vivaldi/koncert-v-am-op3-n8-chords.htm
Привет, Гость.
Предлагаем пройти революционный курс по гитаре.
Подарок от PrimaNota.Ru, забирай!