PrimaNota.ru - самый крупный в мире бесплатный архив песенных текстов, аккордов, табулатур и нот


Вивальди Антонио - Концерт Барроко - аккорды и текст, видео

Регистрация Запомнить меня
Войти через:  Facebook Google Twitter Vk Yandex Mail.ru

Вивальди Антонио - Концерт Барроко - аккорды и текст, видео

Печатать
Просмотров: 243
Уроки эстрадного вокала в Санкт-Петербурге
Концерт Барроко
Вивальди Антонио
E||-------------0----|-------------0----|--------------|
B||----------1-------|----------1-------|--------------|
G||--2---------------|--2---------------|--2-----------|
D||-------2-----2----|-------2-----2----|-------2----2-|
A||--0---------------|--0---------------|--0-----------|
E||------------------|------------------|--------------|

E|---------------------0-|--1--5--1--0--0h1p0---|
B|----1--0h1p0---0h1h3---|--------------------3-|
G|-------------2---------|--------2-----2-------|
D|-------2-------2-------|--0-------------------|
A|-0---------------------|----------------------|
E|-----------------------|----------------------|

E|-----1----------------|------------------0-|
B|--3-----3--1--0h1p0---|------------0h1h3---|
G|--------2-----2-----2-|-1-------2----------|
D|--0-------------------|------0-----0-------|
A|----------------------|--------------------|
E|----------------------|-0------------------|

E|-------------------0-|-----------------|
B|-------------0h1h3---|--1------0h1p0---|
G|--1-------2----------|---------------2-|
D|-------0-----0-------|-------2-------2-|
A|---------------------|--0--------------|
E|--0------------------|-----------------|

E|-----------0----|--5---------0----|-----------------|
B|----------------|-----------------|--1------0h1p0---|
G|-2--------------|-----------------|---------------2-|
D|------2----2----|-------2----2----|-------2-------2-|
A|-0--------------|--0--------------|--0--------------|
E|----------------|-----------------|-----------------|

E|-------------------|------------------|
B|--4--0-----0--1--0-|-4--0-----0--1--0-|
G|--------2----------|-------2----------|
D|--------1-----1----|-------1-----1----|
A|--2----------------|-2----------------|
E|-------------------|------------------|

E|-----------------------0h1h3-|--5-------3--2-|
B|--0-------1p-0---0h1h3-------|---------------|
G|---------------2-------------|---------------|
D|-------1---------1-----------|-------1-----1-|
A|--2--------------------------|--2------------|
E|-----------------------------|---------------|

E|-3-------2--0----|--2------0h2p0------|--0-----------|
B|-----------------|---------------4----|--------------|
G|-----------------|--------------------|--------------|
D|------2-----2----|-------1-------1----|-------2----2-|
A|-----------------|--2-----------------|--------------|
E|-0---------------|--------------------|--0-----------|

E|----------0-----0-|------------0----|-------------0-|
B|-------------3----|---------1-------|----------1----|
G|------------------|-2---------------|--2------------|
D|-------2-----2----|------2-----2----|-------2-----2-|
A|------------------|-0---------------|--0------------|
E|--0---------------|-----------------|---------------|

E|--------------|---------------------0-|--1--5--1--0--0h1p0---|
B|--------------|----1--0h1p0---0h1h3---|--------------------3-|
G|--2-----------|-------------2---------|--------2-----2-------|
D|-------2----2-|-------2-------2-------|--0-------------------|
A|--0-----------|-0---------------------|----------------------|
E|--------------|-----------------------|----------------------|

E|-----1----------------|------------------0-|
B|--3-----3--1--0h1p0---|------------0h1h3---|
G|--------2-----2-----2-|-1-------2----------|
D|--0-------------------|------0-----0-------|
A|----------------------|--------------------|
E|----------------------|-0------------------|

E|-------------------0-|-----------------|-----------0-|
B|-------------0h1h3---|--1------0h1p0---|-------------|
G|--1-------2----------|---------------2-|-2-----------|
D|-------0-----0-------|-------2-------2-|------2----2-|
A|---------------------|--0--------------|-0-----------|
E|--0------------------|-----------------|-------------|

E|--5---------0----|--------------------|-------------------|
B|-----------------|--1------0h1p0------|--4--0-----0--1--0-|
G|-----------------|---------------2----|--------2----------|
D|-------2----2----|-------2-------2----|--------1-----1----|
A|--0--------------|--0-----------------|--2----------------|
E|-----------------|--------------------|-------------------|

E|------------------|--------------------0h1h3-|--5-------3--2-|
B|-4--0-----0--1--0-|-0-----1p-0---0h1h3-------|---------------|
G|-------2----------|------------2-------------|---------------|
D|-------1-----1----|-----1--------1-----------|-------1-----1-|
A|-2----------------|-2------------------------|--2------------|
E|------------------|--------------------------|---------------|

E|-3-------2--0-|-2------0h2p0---|-0-----------|---------------|
B|--------------|--------------4-|-------------|-------------0-|
G|--------------|----------------|-------------|----------0----|
D|------2-----2-|------1-------1-|-------------|--2----2-----2-|
A|--------------|-2--------------|-------------|---------------|
E|-0------------|----------------|-0-----------|--0------------|

E|--------------|-0-------|---------------------|--------------|
B|------------0-|---------|----3--1--0----------|--------------|
G|---------0----|---------|-------------2p0-----|--------------|
D|-2----2-----2-|----2--2-|-------2---------4p2-|-1-------2--4-|
A|--------------|---------|---------------------|-2----0-----0-|
E|-0------------|-0-------|-0-------------------|--------------|

E|------------2----|--3-------2--0h2p0--|--0---------0-|
B|-4-------5-------|--------------------|--------------|
G|-----------------|--------------------|--------------|
D|------4-----4----|-------2-----2------|-------2----2-|
A|-2---------------|--------------------|--------------|
E|-----------------|--0-----------------|--0-----------|

E|-------------------------0--|--------------------------0-|
B|-2p-0--------0--2--2h-3-----|--2p-0--------0--2--2h-3----|
G|-------2--2-----------------|--------2--2----------------|
D|----------2--------2--------|-----------2--------2-------|
A|-0--------------------------|--0-------------------------|
E|----------------------------|----------------------------|

E|-1--5--1-0h1p0------|-------------|--------------------------|
B|---------------3--2-|-3---------3-|-0-------------0--0h-1--3-|
G|-------2-------2----|------2----2-|---2p-0--0h-2-------------|
D|-0------------------|-0-----------|---------0--------0-------|
A|--------------------|-------------|--------------------------|
E|--------------------|-------------|-3------------------------|

E|---------------------------|-0-3--0h3p0--------|-------------|
B|-0--------------0--0h-1--3-|------------3-1--0-|-1---------0-|
G|----2p-0--0h-2-------------|-------------------|-------------|
D|----------0--------0-------|------2-------2----|------2----2-|
A|---------------------------|-3-----------------|-3-----------|
E|-3-------------------------|-------------------|-------------|

E|-------------------------0--|--------------------------0-|
B|-1p-0--------0--1--1h-3-----|--1p-0--------0--1--1h-3----|
G|-------2--2-----------------|--------2--2----------------|
D|----------2--------2--------|-----------2--------2-------|
A|-0--------------------------|--0-------------------------|
E|----------------------------|----------------------------|

E|-1---------0h1p0--|--------------|
B|------------------|--3---------1-|
G|------2----2------|--------------|
D|-0----------------|-------0----0-|
A|------------------|--------------|
E|------------------|--2-----------|

E|-------------------|-----1--0-----------|----------------|
B|----0--------------|--3--------3--1--0--|--0h1p0---------|
G|-1-----2--1--------|--------------------|---------2----1-|
D|-------2-----4--2--|--------2-----2-----|---------2----2-|
A|-------------------|--------------------|--0-------------|
E|-0-----------------|--0-----------------|----------------|

E|-------|---------------------------|-------------------------|
B|-------|-------------------3h-5p-3-|------------------3--5-3-|
G|-2-----|----------2h-4p-2--2-------|---------2--4--2---------|
D|---2-2-|-3h-5p-3--3----------------|-3-5--3--3--------3------|
A|-0-----|-0-------------------------|-0-----------------------|
E|-------|---------------------------|-------------------------|

E|-------------------0h-1--0--|--------------------0--1--0-|
B|----------0h-1--0-----------|-----------0--1--0----------|
G|-1h-2--1--------------------|--1--2--1-------------------|
D|----------0--------0--------|-----------0--------0-------|
A|----------------------------|----------------------------|
E|-0--------------------------|--0-------------------------|

E|----0----------------|----------------------|----|
B|-1-----3--1--0h1p0---|--0--3--1p0h1p0-------|----|
G|-------------------2-|----------------2--1--|--2-|
D|-------2-----2-------|--------0-------0-----|----|
A|-0-------------------|----------------------|--0-|
E|---------------------|--0-------------------|----|

E|-----------------|------------------|--0-----------|
B|------------0----|-------------0----|--------------|
G|---------0-------|----------0-------|--------------|
D|-2----2-----2----|--2----2-----2----|-------2----2-|
A|-----------------|------------------|--------------|
E|-0---------------|--0---------------|--0-----------|

E|----------------------|-----------------|-------------2-|
B|-----3--1--0----------|-----------------|--4-------5----|
G|--------------2p0-----|-----------------|---------------|
D|--------2---------4p2-|-1-------2--4----|-------4-----4-|
A|----------------------|-2----0-----0----|--2------------|
E|--0-------------------|-----------------|---------------|

E|--3-------2--0h2p0--|--0---------0-|
B|--------------------|--------------|
G|--------------------|--------------|
D|-------2-----2------|-------2----2-|
A|--------------------|--------------|
E|--0-----------------|--0-----------|

E|-------------------------0--|--------------------------0-|
B|-2p-0--------0--2--2h-3-----|--2p-0--------0--2--2h-3----|
G|-------2--2-----------------|--------2--2----------------|
D|----------2--------2--------|-----------2--------2-------|
A|-0--------------------------|--0-------------------------|
E|----------------------------|----------------------------|

E|-1--5--1-0h1p0-------|--------------|
B|---------------3--2--|--3---------3-|
G|-------2-------2-----|-------2----2-|
D|-0-------------------|--0-----------|
A|---------------------|--------------|
E|---------------------|--------------|

E|----------------------------|---------------------------|
B|--0--------------0--0h-1--3-|-0--------------0--0h-1--3-|
G|-----2p-0--0h-2-------------|----2p-0--0h-2-------------|
D|-----------0--------0-------|----------0--------0-------|
A|----------------------------|---------------------------|
E|--3-------------------------|-3-------------------------|

E|--0--3--0h3p0---------|--------------|
B|--------------3-1--0--|--1---------0-|
G|----------------------|--------------|
D|--------2-------2-----|-------2----2-|
A|--3-------------------|--3-----------|
E|----------------------|--------------|

E|-------------------------0--|--------------------------0-|
B|-1p-0--------0--1--1h-3-----|--1p-0--------0--1--1h-3----|
G|-------2--2-----------------|--------2--2----------------|
D|----------2--------2--------|-----------2--------2-------|
A|-0--------------------------|--0-------------------------|
E|----------------------------|----------------------------|

E|-1---------0h1p0--|--------------|
B|------------------|--3---------1-|
G|------2----2------|--------------|
D|-0----------------|-------0----0-|
A|------------------|--------------|
E|------------------|--2-----------|

E|-------------------|-----1--0-----------|----------------|
B|----0--------------|--3--------3--1--0--|--0h1p0---------|
G|-1-----2--1--------|--------------------|---------2----1-|
D|-------2-----4--2--|--------2-----2-----|---------2----2-|
A|-------------------|--------------------|--0-------------|
E|-0-----------------|--0-----------------|----------------|

E|----------------|----------------------------|
B|----------------|--------------------3h-5p-3-|
G|-2--------------|-----------2h-4p-2--2-------|
D|------2----2----|--3h-5p-3--3----------------|
A|-0--------------|--0-------------------------|
E|----------------|----------------------------|

E|----------------------------|
B|--------------------3--5--3-|
G|-----------2--4--2----------|
D|--3--5--3--3--------3-------|
A|--0-------------------------|
E|----------------------------|

E|-------------------0h-1--0--|--------------------0--1--0-|
B|----------0h-1--0-----------|-----------0--1--0----------|
G|-1h-2--1--------------------|--1--2--1-------------------|
D|----------0--------0--------|-----------0--------0-------|
A|----------------------------|----------------------------|
E|-0--------------------------|--0-------------------------|

E|----0----------------|----------------------|----|
B|-1-----3--1--0h1p0---|--0--3--1p0h1p0-------|----|
G|-------------------2-|----------------2--1--|--2-|
D|-------2-----2-------|--------0-------0-----|----|
A|-0-------------------|----------------------|--0-|
E|---------------------|--0-------------------|----|
Добавлено: 02.11.2013
Другие материалы по этой песне:
  • Аккорды и текст

Страница создана 02.11.2013
http://primanota.ru/antonio-vivaldi/koncert-barroko-chords.htm
Привет, Гость.
Предлагаем пройти революционный курс по гитаре.
Подарок от PrimaNota.Ru, забирай!