PrimaNota.ru - самый крупный в мире бесплатный архив песенных текстов, аккордов, табулатур и нот


Вивальди Антонио - Concerto In D Major - таба, видео

Регистрация Запомнить меня
Войти через:  Facebook Google Twitter Vk Yandex Mail.ru

Вивальди Антонио - Concerto In D Major - таба, видео

Печатать
Просмотров: 138
This is just something I heard on a CD that I thought I could play.
It's really simple, you can probably play it with two fingers.
I didn't give a time count for this, b/c it pretty much speaks for itself. 
if the numbers are next to each other (23) slide or (22) play rapidly, if they 
are one apart (2-3) play normally, and if they are two apart (2--3) Pause in 
between. I ended the lines pretty much wherea measure would end.
Pay attention to the repeat symbol (|:  :|) don't overlook.

Keep using  and Guitar Picks! (that's how I became the wonderful guitarist 
I am today) ENJOY!!!
P.S. if you find any errors please e-mail me at
ralph21@home.com

1
E|:---2-3-5---2-5-2-0-----0---7-5-3-2-5---2-5-2-0---0---|
A|:-3-------3---------2-3---------------3---------3-----|
D|:-------------------------2-------------------------2-|

2
E|-5-5-2-0---5-2-0---7-5-7-7-7-5-7-7-|
A|---------3-------3-----------------|
D|-----------------------------------|

3
E|-7-0-2-0-7-0-2-0-5-3-5-5-5-3-5-5-|
A|---------------------------------|
D|---------------------------------|

4
E|-5-------5-------4-5-7-5-4-2-0------------0-------|
A|---3-5-3---3-5-3---------------3-2--2-0-----2-0---|
D|----------------------------------------2-------2-|

5
E|-5-------0-------5-7-5-7-5-7-5-7-5--|
A|---2-0-----2-0----------------------|
D|-------2-------2--------------------|

6
E|-4-2-0---------0-5-----4-5-:|
A|-------3-2-0-2-----2-0-----:|
D|---------------------------:|

7
E|--3-0---0-3-7-3-0-----------3-2-0-------|
A|------0-------------2-----2-------3-2-0-|
D|------------------3-----3---------------|
G|----------------------4-----------------|

8
E|-2--2----------------2---------------|
A|-------0-2-0-2-0-2-0---0-2-0-2-0-2-0-|
D|-------------------------------------|

9
E|-7-2-3-2-3-2-3-2-7-2-3-2-3-2-3-2-|
A|---------------------------------|
D|---------------------------------|

10
E|-7-2-0----------------|
A|-------3-3-232323-0-0-|
D|----------------------|

11
E|---2-3-5---2-5-2-0-----0---3-7-3-2-0---|
A|-3-------3---------2-3---------------3-|
D|-------------------------2-------------|

12
E|-5--5-7-5-3-2-0-----------|
A|----------------3-1-0-----|
D|----------------------2-0-|

13
E|-7--7-9-7-5-3-2-0-----------0-3-|
A|------------------3-2-0---2-----|
D|------------------------2-------|

14
E|--2----------------2---------------|
A|-----------------------------------|
D|----2-4-2-4-2-4-2----2-4-2-4-2-4-2-|

15
E|-0---------------3---------------|
A|---------------------------------|
D|---2-4-2-4-2-4-2---2-4-2-4-2-4-2-|

16
E|-2-3-5---------------|
A|-------3-7-57575-3-3-|
D|---------------------|

17
E|-3-2-3-0---------3-0-3-7-3-0-------------------|
A|---------0---0-3-------------2-0---2-----2---2-|
D|-----------0---------------------3-----3---3---|
G|-------------------------------------4---------|

18
E|-2-3-2-2-0-0-------------|
A|-------------3-3-2-3-2-0-|
D|-------------------------|

19
E|-2-2-2----------------2---------------|
A|-------0-2-0-2-0-2-0----0-2-0-2-0-2-0-|
D|--------------------------------------|

20
E|-7-2-3-2-3-2-3-2--7-2-3-2-3-2-3-2-|
A|----------------------------------|
D|----------------------------------|

21
E|-7-2-3-2-3-2-0---------------|
A|---------------3-3-232323-0-0|
D|-----------------------------|

22
E|---2-3-5---2-5-2-0-----0---3-7-3-2-0---|
A|-3-------3---------2-3---------------3-|
D|-------------------------2-------------|

23
E|-5--5-7-5-3-2-0-----------|
A|----------------3-1-0-----|
D|----------------------2-0-|

24
E|-7-7-7-9-10-9-77-55-33-22-00-------------0-3-|
A|-----------------------------33-22-0---2-----|
D|-------------------------------------2-------|

25
E|--2----------------2---------------|
A|----2-4-2-4-2-4-2----2-4-2-4-2-4-2-|
D|-----------------------------------|

26
E|-0---------------3---------------|
A|---2-4-2-4-2-4-2---2-4-2-4-2-4-2-|
D|---------------------------------|

27
E|-2-3-5----------------||
A|-------3-7-57575-3--3-||
D|----------------------||

Steph Bruce, ralph21@home.com

     
Добавлено: 01.02.2014
Другие материалы по этой песне:
  • Аккорды и текст

Страница создана 01.02.2014
http://primanota.ru/antonio-vivaldi/concerto-in-d-major-chords.htm
Привет, Гость.
Предлагаем пройти революционный курс по гитаре.
Подарок от PrimaNota.Ru, забирай!