PrimaNota.ru - самый крупный в мире бесплатный архив песенных текстов, аккордов, табулатур и нот


Вивальди Антонио - Autumn - таба, видео

Регистрация Запомнить меня
Войти через:  Facebook Google Twitter Vk Yandex Mail.ru

Вивальди Антонио - Autumn - таба, видео

Печатать
Просмотров: 180
Уроки эстрадного вокала в Санкт-Петербурге



Date: Fri, 19 Aug 2005 16:19:18 EDT
From: ItsmeStan@aol.com
Subject: v/vivaldi_antonio/autumn.tab

Artist: Antonio Vivaldi
Song: Autumn (from the four seasons)
transcribed by Stan A. ... dedicated to the beauty of a season ...
 
For reference, you will find the piano(midi)
version of this song on my personal web
page. www.geocities.com/stanislaw_alam/index.html 
                                                                     
e|-5----5----5----6----5-----5----6----|-5----5----5----6----5-----5-----
B|-6----6----6---------6-----6---------|-6----6----6---------6-----6-----
G|-------------------------------------|---------------------------------
D|-------------------------------------|---------------------------------
A|-8----8----8---------8-----8---------|-8----8----8---------8-----8-----
E|----------------8---------------8----|----------------8----------------
 1                                    
2                               
 
                                  
6----|-5---------5--6----5----3-----|-----------------------------------
-----|-6----8-----------------------|-----------------------------------
-----|------------------------------|-----------------------------------
-----|------------------------------|-7----7----7----8----7-----7-------
-----|-8----8-----------------3-----|-8----8----8---------8-----8-------
8----|--------------6----7----------|----------------8------------------
     3                              4                               
 
                                                                   
-----|-------------------------------------|----------------------------
-----|-------------------------------------|----------------------------
-----|-------------------------------------|------0-------3----2--------
8----|-7----7----7----8----7-----7----8----|-7----3----7----------------
-----|-8----8----8---------8-----8---------|-8------------1----2--------
8----|----------------8---------------8----|----------------------------
     5                                     6                       
 
                            
------|-5----5----5-----8--------------------------|-3----3----3--------
------|----------------------3----------3-----3----|-1----1----1--------
0-----|-5----5----5----------3-----3----3----------|--------------------
2-----|-3----3----3----------5-----5----5----------|-2----2----2--------
3-----|--------------------------------------------|--------------------
------|--------------------------------------------|--------------------
      7                                            8                
 
                                                 
6---------------------1----|-5----5----5----6----5----5----5----6-------
-----1----------1----------|-6----6----6---------6----6----6------------
-----2-----2----2----------|--------------------------------------------
-----3-----3----3----------|--------------------------------------------
---------------------------|-8----8----8---------8----8----8------------
---------------------------|----------------8-------------------8-------
                           9                                        
 
                                                                 
|--5----5----5----6----5---------5--6---------|--5----------------------
|--6----6----6---------6----8------------8----|-------------------------
|---------------------------------------------|-------------------------
|---------------------------------------------|--------7----7----7------
|--8----8----8---------8----8-----------------|--------8----8----8------
|-----------------8-----------------6----8----|--1----------------------
10                                            11                     
 
                                                                    
-----|------------------------------------------|-----------------------
-----|------------------------------------------|-----------------------
-----|------------------------------------------|-------0-------3-------
8----|--7----7----7----8----7----7----7----8----|--7----3----7--0-------
-----|--8----8----8---------8----8----8---------|--8------------1-------
8----|-----------------8-------------------8----|-----------------------
     12                                         13                  
 

-----------|--13----8----8----8----10----8----8----|--13----8----8------
-----------|---------------------------------------|--------------------
0----------|---------------------------------------|--------------------
2----3-----|---------------------------------------|--------------------
3----0-----|-------------8----8----------8----8----|-------------8------
-----1-----|--13-------------------6---------------|--13----------------
           14                                      15                
 
                             
8----10----8----8----|--10----8----8----13----12-10------------|--------
---------------------|------------------------------13----11---|--10----
---------------------|-----------------------------------------|--------
---------------------|-----------------------------------------|--10----
8----------8----8----|--------8----8---------------------------|--8-----
-----6---------------|--6---------------13----------12---------|--------
                     16                                       
17     
 

-----------|---------------------------------------|--------------------
8----------|-----------------------------1---------|--------------------
-----10----|--10-------------------7-----2---------|--10----------------
8----------|--------10---10---10---8----------10---|--------10---10-----
-----12----|--12----12---12---12--------------12---|--12----12---12-----
8----13----|--13---------13---13---6-----1----13---|--13---------13-----
           18                                      19                
 
        
 
---------------------|------------------------0----------------|--------
-----------1---------|--------1--------------------------------|--------
-----7-----2---------|--7-----2---------10-------7--5-----3----|--5-----
10---8----------10---|--8----------10--------------------------|--7-----
12--------------12---|-------------12---8-----------7----------|--8-----
13---6-----1----13---|--6-----1----13--------------------------|--------
                     20                                       
21     
 
C7                                                                    
----------5----5----6----|--5----5----5----6----5----5----5----6----|---
-------------------------|--6----6----6---------6----6----6---------|---
3----2-------------------|------------------------------------------|---
5----3----3----3---------|------------------------------------------|---
3------------------------|--8----8----8---------8----8----8---------|---
--------------------8----|-----------------8-------------------8----|---
                         22                                        
23
 
                                
5---------5--6---------5-----|------------------------------------------
6----8------------8----------|------------------------------------------
-----------------------------|--2----2----2----3----2----2----2---------
-----------------------------|--3----3----3----5----3----3----3---------
8----8-----------------------|-----------------3------------------------
-------------6----8----1-----|--1----1----1---------1----1----1---------
                             24                                   
 
                                     
-----|----------------------------------------------|--------|----------
-----|----------------------------------------------|--------|----------
3----|--2----2----2----3----2----0-----2--3---------|--2-----|--2-------
5----|--3----3----3----5----3-------------0----2----|--3-----|--3-------
3----|-----------------3------------------1----3----|--------|----------
-----|--1----1----1---------1----1------------------|--1-----|--1-------
     25                                             26       27     
 
        
-------------------------------|----------------------------------------
-------------------------------|----------------------------------------
2----2----3----2-----2----3----|--2----2----2----3----2-----2----3------
3----3----5----3-----3----5----|--3----3----3----5----3-----3----5------
----------3---------------3----|-----------------3---------------3------
1----1---------1-----1---------|--1----1----1---------1-----1-----------
                               28                                    
 
                     
|-------------------------------|--5----5----5-----8--------------------
|-------------------------------|-----------------------3---------------
|--2----0----2--3----2----0-----|--5----5----5----------3-----3---------
|--3----------------------2-----|--3----3----3----------5-----5---------
|---------------1----2----3-----|---------------------------------------
|--1----1-----------------------|---------------------------------------
29                              30                                
 
                    
-----------|--3----3----3-----6---------------------1----|--5----5------
3-----3----|--1----1----1----------1----------1----------|--6----6------
3----------|-----------------------2-----2----2----------|--------------
5----------|--2----2----2----------3-----3----3----------|--------------
-----------|---------------------------------------------|--8----8------
-----------|---------------------------------------------|--------------
           31                                            32          
 
                                                                      
5----6----5----5----5----6----|--5----5----5----6----5---------5--6-----
6---------6----6----6---------|--6----6----6---------6----8-------------
------------------------------|-----------------------------------------
------------------------------|-----------------------------------------
8---------8----8----8---------|--8----8----8---------8----8-------------
-----8-------------------8----|-----------------8-----------------6-----
                             
33                                      
 
        
-----|--5-------------------------|-------------------------------------
8----|----------------------------|-------------------------------------
-----|--------2----2----2----3----|--2----2----2----3----2----2---------
-----|--------3----3----3----5----|--3----3----3----5----3----3---------
-----|-----------------------3----|-----------------3-------------------
8----|--1-----1----1----1---------|--1----1----1---------1----1---------
     34                           35                              
 
         
----------|------------------------------|e
----------|------------------------------|B
2----3----|--2----0----2--3----0---------|G
3----5----|--3------------0----2----3----|D
-----3----|---------------1----3----0----|A
1---------|--1----1-----------------1----|E
          36                              
 
I hear and I forget. I see and I remember. I do and I understand. -
Confucius


Добавлено: 10.01.2014
Другие материалы по этой песне:

Страница создана 05.06.2012
http://primanota.ru/antonio-vivaldi/autumn-chords.htm
Привет, Гость.
Предлагаем пройти революционный курс по гитаре.
Подарок от PrimaNota.Ru, забирай!