PrimaNota.ru - самый крупный в мире бесплатный архив песенных текстов, аккордов, табулатур и нот


Antonio Lauro - Triptico Three Venezuelan Pieces - Ii Madrugada - таба, видео

Регистрация Запомнить меня
Войти через:  Facebook Google Twitter Vk Yandex Mail.ru

Antonio Lauro - Triptico Three Venezuelan Pieces - Ii Madrugada - таба, видео

Печатать
Просмотров: 179
Уроки эстрадного вокала в Санкт-Петербурге
II. Madrugada  [from Three Venezuelan Pieces]
Author: Antonio Lauro
Tab by: Carlos Cordero  
http://www.geocities.com/vienna/waltz/2067

Key Signature: G Major
Time Signature: 3/4
Tablature Explanation at the End.

      |      |  |  |   |  |  |   |  |  |   |  |  |   |  |  |    |  |  |
E-|---7.-||--2--3--0-|-------5-|---------|-------7-|-2--3--12-|-7--8--5-|
B-|------||--0-----0-|-0--1----|-3--4--7-|----0----|-0------9-|---------|
G-|------||*---------|-2-----5-|-2-------|-3-------|--------9-|-9-----5-|
D-|------||*---------|-2-----4-|-4-------|-2-------|----------|-7-----4-|
A-|------||----------|-0-------|-2-----0-|---------|----------|-0-------|
E-|------||--0-----4-|---------|---------|-3-----2-|-0------0-|---------|

             1?-------|    2?-------|
    |  |  |   |  |  |        |  |  |    |  |  |   |  |  |   |  |  |   |  |  
|
E-|-3-----2-|-0-----7--||  |-0-----10-|-6--7--3-|----0--8-|-4--5--2-|---------|
B-|----0----|-0--------||  |-0--------|-------3-|-4-----5-|-------1-|-5-----3-|
G-|-3-----2-|---------*||  |----------|-0-----0-|-0-----5-|-5-----2-|-3--4----|
D-|-2-------|-4--5----*||  |-4--5--0--|---------|---------|-0-----0-|-------0-|
A-|-------2-|----------||  |----------|-------2-|-3-----0-|---------|---------|
E-|---------|-0--------||  |-0--------|---------|---------|---------|-3-------|

     |  |   |   |  |   |   |  |  |    |  |  |   |  |  |    |  |  |    |  |  
|
E-|-10-----15-|-------12-|-------10-|-8-----7-|-10----15-|-------12-|-------7-|
B-|--7--8-----|-10----10-|-7-----7--|-7-----5-|-7--8-----|-10----10-|-6--7--7-|
G-|---------0-|-8--9-----|-5-----7--|-------0-|-------0--|-8--9-----|-5-----5-|
D-|-----------|-------10-|-6--7--0--|-7-------|----------|-------10-|-------0-|
A-|-----------|--------0-|-5--------|-6--7----|----------|-------0--|-5-------|
E-|--7--------|-8--------|----------|-------0-|-7--------|-8--------|---------|

    |  |  |   |  |  |   |  |  |   |  |  |   |  |  |   |  |  |    |  |  |
E-|-3-----7-|-2--3--0-|-------5-|---------|-------7-|-2--3--12-|-7--8--5-|
B-|-3-------|-0-----0-|-0--1----|-3--4--7-|----0----|-0-----9--|---------|
G-|-3--4----|---------|-2-----5-|-2-------|-3-------|-------9--|-9-----5-|
D-|---------|---------|-2-----4-|-4-------|-2-------|----------|-7-----4-|
A-|---------|---------|-0-------|-2-----0-|---------|----------|-0-------|
E-|-3-----2-|-0-----4-|---------|---------|-3-----2-|-0-----0--|---------|

    |  |  |   |  |  |
E-|-3-----2-|-0-----12.-|
B-|----0----|-0---------|
G-|-3-----2-|-----------| fine.
D-|-2-------|-4--5------|
A-|-------2-|-----------|
E-|---------|-0---------|

..._

Tablature Explanation:
~~~~~~~~~~~~~~~~~~~~~
                                                               cx.......

E-||----------|| |-------|-------|----(7----|-------|---------|---------|
B-||----------|| |-------|-------|----)7----|-------|---------|---------|
G-||*-repeat-*|| |--3/9--|--5p3--|----(5----|--1h3--|--<12>---|---------|
D-||*--------*|| |-------|-------|----)6----|-------|---------|---------|
A-||----------|| |-------|-------|----(6----|-------|---------|---------|
E-||----------|| |-------|-------|----)7----|-------|---------|---------|
                   slur    pull    arpegiate  hammer  harmonic   bar on
                           off                 on                x fret

......................................................_

E-|---Author:-Antonio-Lauro------------------------|
B-|---Tab-by:-Carlos-Cordero-----------------------|
G-|---E-Mail:-cachome@telcel.net.ve----------------|
D-|---Look-More-Classical-Guitar-Tabs-at:----------|
A-|---http://www.geocities.com/vienna/waltz/2067---|
E-|---Send-your-comments-and-questions-------------|
......................................................_
Добавлено: 25.07.2012
Другие материалы по этой песне:
  • Аккорды и текст

Страница создана 25.07.2012
http://primanota.ru/antonio-lauro/triptico-three-venezuelan-pieces-ii-madrugada-chords.htm
Привет, Гость.
Предлагаем пройти революционный курс по гитаре.
Подарок от PrimaNota.Ru, забирай!