PrimaNota.ru - самый крупный в мире бесплатный архив песенных текстов, аккордов, табулатур и нот


Antonio Lauro - Triptico Three Venezuelan Pieces - I Armida - таба, видео

Регистрация Запомнить меня
Войти через:  Facebook Google Twitter Vk Yandex Mail.ru

Antonio Lauro - Triptico Three Venezuelan Pieces - I Armida - таба, видео

Печатать
Просмотров: 186
I. Armida  [from Three Venezuelan Pieces]
Author: Antonio Lauro
Tab by: Carlos Cordero  
http://www.geocities.com/vienna/waltz/2067

Key Signature: G Major
Time Signature: 2/4
Tablature Explanation at the End.

E||--------0-2-|-3-----0---|-----------|-----------|-----------|
B||------0---0-|-0-----0---|-1-5-4-7-5-|-0---------|---0---1-0-|
G||*---0-----2-|-0-----0---|-2-5-4-7-5-|-2-0-----2-|-0---3---0-|
D||*-2-----2-1-|-2-0-------|-------0---|-0---4-2-1-|-2-------2-|
A||------2-----|-----3-2---|-0---------|-----------|-2---------|
E||--0-3-------|---------3-|-----------|-3-------2-|-0-------3-|

E|-----------|-----------|-------7---|-------0-2-|-3-----0---|
B|-0---------|-------0---|-7-5-0-----|-----0---0-|-0-----0---|
G|-----------|---------2-|-0-----0---|---0-----2-|-0-----0---|
D|-2-1---4---|-4-7-6---1-|---------4-|-2-----2-1-|-2-0-------|
A|-----4-6---|-0-----2---|-----------|-----2-----|-----3-2---|
E|-2-------7-|-----------|-0---------|-0-3-------|---------3-|

E|-----------|-----------|-----------|-----------|-------3-2-|
B|-1-5-4-7-5-|-0---------|-0-3-2-5-3-|-3-----1---|-0-1-0---0-|
G|-2-5-4-7-5-|-2-0-----2-|-1-4-3-5-4-|-4-----2---|-0-------2-|
D|-------0---|-0---4-2-1-|-0---------|---1-2-2---|-2-------1-|
A|-0---------|-----------|-----------|-0-------0-|-2-----2---|
E|-----------|-3-------2-|-0-------0-|-----------|-----------|

  1............|     2..........|

E|-0-----------||   |-0---------||-------------|--0----------|
B|-0-0---------||   |-0---------||-------0-3-2-|--1-----3----|
G|-0---0------*||   |-0---------||*----0---4-3-|--2-0---4----|
D|-2-----2----*||   |-2---------||*--0-------0-|------4-2-0--|
A|---------2---||   |---2-------||-------------|-------------|
E|-------------||   |-----3-0-2-||---3---------|--3----------|

E|-------3-2-|-2-----0---|-----0-5-3-|-2---2-5-2-|-----0-3-0-|
B|---0-3-3---|-----------|---1-----5-|-5-3-2-----|-5-0-2-1-2-|
G|-0-----0---|-2-0---0---|-2-----5---|-------5---|-5---3-2-3-|
D|-----------|-----4-----|-----------|-0---------|-0---------|
A|-------2---|-3-------2-|-0---------|-----------|-----------|
E|-3---------|-----------|-----------|-----------|-----------|

E|-----------|-----------|-1-----0---|-----------|-----------|
B|-3---------|-----0-3-5-|-3---0-0---|-----0-5-3-|-1---------|
G|-5-4-3-4---|---0---4-5-|-1-3---2-1-|---1---5-4-|-4-2-------|
D|---------5-|-0---------|-----------|-2---------|-----2-----|
A|-----------|-----------|-----------|-----------|-0-----3-2-|
E|-3---------|-3---------|-0---------|-0---------|-----------|

                                     1...........| 2..........|

E|-----0-5-8-|-7---------|-------5---|-3----------||-3-------2-|
B|---1-------|-------3---|-3-2-3---3-|------------||---------4-|
G|-2-----5-8-|-7-6-7-5-4-|-5-----5---|-5-4-3-5-4-*||---4-3-4-2-|
D|-----------|-0---------|-0---------|-----------*||---------4-|
A|-0---------|-----------|-----------|------------||---------2-|
E|-----------|-----------|-----------|-3----------||-3---------|

E|-0-----------|---------|
B|-0-12--------|---------|
G|-0----12-----|---------| fine.
D|-2-----------|---------|
A|-2-------5---|---------|
E|-0---------5-|---12.---|

..._

Tablature Explanation:
~~~~~~~~~~~~~~~~~~~~~
                                                             cx.......

E-|----------| |-------|-------|----(7----|-------|---------|---------|
B-|----------| |-------|-------|----)7----|-------|---------|---------|
G-|*-repeat-*| |--3/9--|--5p3--|----(5----|--1h3--|--<12>---|---------|
D-|*--------*| |-------|-------|----)6----|-------|---------|---------|
A-|----------| |-------|-------|----(6----|-------|---------|---------|
E-|----------| |-------|-------|----)7----|-------|---------|---------|
                 Slur    Pull    Arpegiate  Hammer  Harmonic   Bar on
                         off                 on                x fret

......................................................_

E-|---Author:-Antonio-Lauro------------------------|
B-|---Tab-by:-Carlos-Cordero-----------------------|
G-|---E-Mail:-cachome@telcel.net.ve----------------|
D-|---Look-More-Classical-Guitar-Tabs-at:----------|
A-|---http://www.geocities.com/vienna/waltz/2067---|
E-|---Send-your-comments-and-questions-------------|
......................................................_
Добавлено: 16.05.2012
Другие материалы по этой песне:
  • Аккорды и текст

Страница создана 16.05.2012
http://primanota.ru/antonio-lauro/triptico-three-venezuelan-pieces-i-armida-chords.htm
Привет, Гость.
Предлагаем пройти революционный курс по гитаре.
Подарок от PrimaNota.Ru, забирай!