PrimaNota.ru - самый крупный в мире бесплатный архив песенных текстов, аккордов, табулатур и нот


Антониу Карлус Жобин - Quiet Night Of Quiet Stars - бас-таба, видео

Регистрация Запомнить меня
Войти через:  Facebook Google Twitter Vk Yandex Mail.ru

Антониу Карлус Жобин - Quiet Night Of Quiet Stars - бас-таба, видео

Печатать
Просмотров: 142
antonio carlos jobim_quiet night of quiet stars

Basstab by Jan Bjorklund, Finland  jani_bjorklund@yahoo.se>
You are welcome to request for basstabs!
Fingering and positions as suggested by TablEdit, please use common sense!

TablEdited by Jan Bjorklund
Tuning : E A D G 	Time Signature: 4/4

  |       |       |       |          |       |       |       |         
|-----------------7----------------||---------------------------------|
|-7-----------7---------------7----|*7-----------7---7-----------7----|
|----------------------------------|*---------------------------------|
|----------------------------------||---------------------------------|

  |       |       |       |          |       |       |       |         
|----------------------------------|----------------------------------|
|-6-----------6---6-----------6----|-6-----------6---6-----------6----|
|----------------------------------|----------------------------------|
|----------------------------------|----------------------------------|

  |       |       |       |          |       |       |       |         
|----------------------------------|---------------------------------||
|-5-----------5--------------------|---------------------------------||
|-----------------5-----------5----|-----------------3-----------3---||
|----------------------------------|-3-----------3-------------------||

>1|       |       |       |          |       |       |       |         
|----------------------------------|---------------------5------------|
|-3-----------3---------------3----|-3-----------3--------------------|
|-----------------3----------------|-------------------------3--------|
|----------------------------------|----------------------------------|

  |       |       |       |          |       |       |       |         
|----------------------------------|-------------------------3--------|
|-3-----------3--------------------|-------------3-------3-------3----|
|-----------------3-----------3----|----------------------------------|
|----------------------------------|-6--------------------------------|

  |       |       |       |          |       |       |       |         
|----------------------------------|----------------------------------|
|----------------------------------|-------------7--------------------|
|-7-----------7---7----------------|---------------------7-------7----|
|-----------------------------5----|-5-----------------------5--------|

  |       |       |       |          |       |       |       |         
|----------------------------------|----------------------------------|
|----------------------------------|-------------7-------7------------|
|-5-----------5--------------------|-5--------------------------------|
|-----------------5-----------5----|-------------------------5--------|

  |       |       |       |          |       |       |       |         
|----------------------------------|----------------------------------|
|-----------------3-----------5----|-5--------------------------------|
|-5-----------5--------------------|-------------5-------5------------|
|----------------------------------|-------------------------3--------|

  |       |       |       |        >2|       |       |       |         
|-----------------7---------------||----------------------------------|
|-7-----------7---------------7---*|-3-----------3---------------3----|
|---------------------------------*|-----------------3----------------|
|---------------------------------||----------------------------------|

  |       |       |       |          |       |       |       |         
|---------------------5------------|----------------------------------|
|-------------3--------------------|-3-----------3--------------------|
|-------------------------3--------|-----------------5-----------5----|
|----------------------------------|----------------------------------|

  |       |       |       |          |       |       |       |         
|----------------------------------|----------------------------------|
|-------------7-------3-------3----|----------------------------------|
|----------------------------------|-5-----------5--------------------|
|-5-----------------------5--------|-----------------5-----------5----|

  |       |       |       |          |       |       |       |         
|----------------------------------|-----------------------------9----|
|----------------------------------|-----------------5----------------|
|-------------5-------5---5--------|-7-----------7--------------------|
|-3--------------------------------|----------------------------------|

  |       |       |       |          |       |       |       |         
|----------------------------------|----------------------------------|
|-7--------------------------------|----------------------------------|
|-------------7-------7------------|-5-----------5--------------------|
|-------------------------5--------|-----------------6-----------6----|

  |       |       |       |          |       |       |       |         
|----------------------------------|----------------------------------|
|-------------------------5--------|----------------------------------|
|-------------5-------5-------5----|-3-----------3---3----------------|
|-3--------------------------------|-----------------------------0----|

  |       |       |       |                  
|----------------------------------|
|-------------7--------------------|
|---------------------7-------7----|
|-5-----------------------5--------|


Created with TablEdit http://www.tabledit.com/


     
Добавлено: 25.01.2014
Другие материалы по этой песне:

Страница создана 22.02.2012
http://primanota.ru/antonio-carlos-jobim/quiet-night-of-quiet-stars-chords.htm
Привет, Гость.
Предлагаем пройти революционный курс по гитаре.
Подарок от PrimaNota.Ru, забирай!