PrimaNota.ru - самый крупный в мире бесплатный архив песенных текстов, аккордов, табулатур и нот


Антониу Карлус Жобин - Anos Dourados - бас-таба, видео

Регистрация Запомнить меня
Войти через:  Facebook Google Twitter Vk Yandex Mail.ru

Антониу Карлус Жобин - Anos Dourados - бас-таба, видео

Печатать
Просмотров: 206
Авторы: Antônio Carlos Jobim

jobim_anos dourados

Basstab by Jan Bjorklund, Finland  jani_bjorklund@yahoo.se>
You are welcome to request for basstabs!
Fingering and positions as suggested by TablEdit, please use common sense!

TablEdited by Jan Bjorklund
Tuning : E A D G 	Time Signature: 4/4

  |       |       |       |          |       |       |       |         
|----------------------------------|----------------------------------|
|-----------------4----------------|-----------------2-----------2----|
|-----------------------------3----|-2-----------2--------------------|
|-5-----------5--------------------|----------------------------------|

  |       |       |       |          |       |       |       |         
|----------------------------------|----------------------------------|
|-------------5---4-----------4----|---------4-------2-----------2----|
|----------------------------------|-2--------------------------------|
|-5--------------------------------|-------------2--------------------|

  |       |       |       |          |       |       |       |         
|----------------------------------|----------------------------------|
|-----------------4----------------|---------4-------2-----------2----|
|-----------------------------3----|-2--------------------------------|
|-5-----------5--------------------|-------------2--------------------|

  |       |       |       |          |       |       |       |         
|----------------------------------|----------------------------------|
|-----------------2----------------|-------------2---2----------------|
|----------------------------------|-----------------------------4----|
|-5-----------5---------------5----|-5--------------------------------|

  |       |       |       |          |       |       |       |         
|-------------2---2----------------|-----------------1-------8--------|
|----------------------------------|-1-----------1---------------1----|
|-5---------------------------5----|----------------------------------|
|----------------------------------|----------------------------------|

  |       |       |       |          |       |       |       |         
|----------------------------------|-----------------1----------------|
|----------------------------------|-1-----------1--------------------|
|-4-----------4---4-----------4----|-----------------------------5----|
|----------------------------------|----------------------------------|

  |       |       |       |          |       |       |       |         
|-----------------1----------------|-------------2---1-----------1----|
|----------------------------------|-1--------------------------------|
|-4-----------4---------------4----|----------------------------------|
|----------------------------------|----------------------------------|

  |       |       |       |          |       |       |       |         
|----------------------------------|----------------------------------|
|-----------------4-----------4----|-----------------2-----------2----|
|-4-----------4--------------------|-2-----------2--------------------|
|----------------------------------|----------------------------------|

  |       |       |       |          |       |       |       |         
||---------------------------------|---------------------------------||
|*----------------4-----------4----|-----------------2---------------||
|*---------------------------------|-2-----------2---------------1---||
||5-----------5--------------------|---------------------------------||

>1|       |       |       |          |       |       |       |         
|----------------------------------|----------------------------------|
|-----------------4-----------4----|-------------3---2----------------|
|----------------------------------|-2---------------------------1----|
|-5-----------5--------------------|----------------------------------|

  |       |       |       |          |       |       |       |         
|----------------------------------|----------------------------------|
|-------------2---2----------------|-------------2---2----------------|
|----------------------------------|----------------------------------|
|-5---------------------------4----|-5---------------------------5----|

  |       |       |       |          |       |       |       |         
|----------------------------------|----------------------------------|
|----------------------------------|----------------------------------|
|-5-----------5---5-----------5----|-4-----------5---4-----------4----|
|----------------------------------|----------------------------------|

  |       |       |       |          |       |       |       |         
|----------------------------------|-----------------2----------------|
|-4-----------4---4-----------4----|-3-----------3---------------3----|
|----------------------------------|----------------------------------|
|----------------------------------|----------------------------------|

  |       |       |       |          |       |       |       |         
|----------------------------------|----------------------------------|
|-------------5---4----------------|-----------------2-------2--------|
|-----------------------------3----|-2-------2------------------------|
|-5--------------------------------|----------------------------------|

  |       |       |       |          |       |       |       |         
|----------------------------------|----------------------------------|
|-----------------4-----------4----|-----------------2-------2--------|
|-4-----------4--------------------|-2-------2------------------------|
|----------------------------------|----------------------------------|

  |       |       |       |          |       |       |       |         
|----------------------------------|-------------4---4----------------|
|-----------------2----------------|-2---------------------------2----|
|----------------------------------|----------------------------------|
|-5-----------5---------------5----|----------------------------------|

  |       |       |       |          |       |       |       |         
|-------------------------6--------|-------------------------4-------||
|-----------------4----------------|-----------------2---------------*|
|-----------------------------4----|-2-----------2---------------2---*|
|-5-----------5--------------------|---------------------------------||

>2|       |       |       |          |       |       |       |         
|-------------------------6--------|----------------------------------|
|-----------------4----------------|-----------------2-----------2----|
|-----------------------------4----|-2-----------2--------------------|
|-5-----------5--------------------|----------------------------------|

  |       |       |       |          |       |       |       |         
|----------------------------------|----------------------------------|
|-------------2---2----------------|-----------------2----------------|
|----------------------------------|----------------------------------|
|-5---------------------------5----|-5-----------5---------------5----|

  |       |       |       |          |       |       |       |         
|-----------------2----------------|-1--------------------------------|
|----------------------------------|----------------------------------|
|-5-----------5---------------5----|-------------5---4-----------4----|
|----------------------------------|----------------------------------|

  |       |       |       |          |       |       |       |         
|-----------------6----------------|----------------------------------|
|-4-----------4---------------4----|-3-----------3---3-----------3----|
|----------------------------------|----------------------------------|
|----------------------------------|----------------------------------|

  |       |       |       |          |       |       |       |         
|----------------------------------|----------------------------------|
|-----------------4-----------4----|-----------------2-------2--------|
|----------------------------------|-2-------2------------------------|
|-5-----------5--------------------|----------------------------------|

  |       |       |       |          |       |       |       |         
|----------------------------------|----------------------------------|
|-------------5---4-----------4----|-----------------2-------2--------|
|-4--------------------------------|-2-------2------------------------|
|----------------------------------|----------------------------------|

  |       |       |       |          |       |       |       |         
|----------------------------------|----------------------------------|
|-3-----------3---5-----------5----|-----------------2----------------|
|----------------------------------|----------------------------------|
|----------------------------------|-5-----------5---------------5----|




Created with TablEdit http://www.tabledit.com/




     
Добавлено: 20.12.2013
Другие материалы по этой песне:
  • Аккорды и текст

Страница создана 11.08.2013
http://primanota.ru/antonio-carlos-jobim/anos-dourados-chords.htm
Привет, Гость.
Предлагаем пройти революционный курс по гитаре.
Подарок от PrimaNota.Ru, забирай!