PrimaNota.ru - самый крупный в мире бесплатный архив песенных текстов, аккордов, табулатур и нот


Antonio Cano - Estudio Cano - таба, видео

Регистрация Запомнить меня
Войти через:  Facebook Google Twitter Vk Yandex Mail.ru

Antonio Cano - Estudio Cano - таба, видео

Печатать
Просмотров: 159
Уроки эстрадного вокала в Санкт-Петербурге
Estudio Cano - Antonio Cano (1811-1897)


E||------------------||---------------------------|--------------------------|
B||--------3------1--||---0-----------0-----------|--1--------0--1--------2--|
G||------------------||*--------0-----------0-----|--------2-----------2-----|
D||------------------||*-----0-----0-----0-----0--|-----0-----------0--------|
A||------------------||---------------------------|--------------------------|
E||------------------||---3-----------------------|--------------3-----------|


--------------------------|--------------3--------2--|
--3-----------0-----------|--------------------1-----|
--------0-----------0-----|--------0--------0--------|
-----0-----0-----0-----0--|-----0-----0--------------|
--------------------------|--------------------------|
--3-----------------------|--3-----------------------|


--0-----------------------|--------------3--------0--|
--------1-----------1-----|--------1-----------1-----|
-----0-----0-----0-----0--|-----0-----0-----0--------|
--------------2-----------|--------------------------|
--3-----------------------|--------------------------|
--------------------------|--0-----------------------|


--------------3-----------|--------------------------|
--3-----------------------|--------------0--------0--|
--------0-----------0-----|--------0-----------0-----|
-----0-----0-----0-----0--|-----0-----0-----0--------|
--------------------------|--------------------------|
--3-----------------------|--3-----------------------|


--------------------------|--------------2--------2--|
--0-----------0-----------|--------------------------|
--------2-----------2-----|--------2-----------2-----|
-----1-----1-----1-----1--|-----1-----1-----4--------|
--2-----------------------|--------------------------|
--------------------------|--0-----------------------|


--5-----------3-----------|--------------2--------0--|
--------0-----------0-----|--------1-----------1-----|
-----0-----0-----0-----0--|-----2-----2-----2--------|
--------------------------|--0-----------------------|
--------------------------|--------------------------|
--0-----------------------|--------------------------|


--------------3-----------|--3--------2--0--------2--|
--3-----------------------|--------1-----------1-----|
--------0-----------0-----|-----2-----------2--------|
-----0-----0-----0-----0--|--------------------------|
--------------------------|--------------3-----------|
--3-----------------------|--------------------------|


--3-----------------------|----------------------||---------------------|
--------------0-----------|-----------3------1---||-----------3------3--|
-----------0-----0--------|---------------------*||---------------------|
--------0-----------0-----|---------------------*||---------------------|
-----2-----------------2--|----------------------||---------------------|
--3-----------------------|--3-------------------||--3------------------|


--------------5-----------|--------------------------|
--3-----------------------|--------------3--------3--|
--------5-----------5-----|--------5-----------5-----|
-----4-----4-----4-----4--|-----4-----4-----4--------|
--0-----------------------|--0-----------0-----------|
--------------------------|--------------------------|


--------------3-----------|--------------------------|
--3-----------------0-----|--------0-----3--------3--|
--------0--------0-----0--|-----0-----0--------0-----|
-----0-----0--------------|-----------------0--------|
--------------------------|--------------------------|
--3-----------------------|--3-----------------------|


--5-----------5-----------|--------------0--------2--|
--------3-----------3-----|--------1-----------1-----|
-----5-----5-----5-----5--|-----2-----2-----2--------|
--0-----------------------|--0-----------------------|
--------------------------|--------------------------|
--------------------------|--------------------------|


--3-----------------------|--------------------------|
--------------3-----------|--------------3--------3--|
--------0-----------0-----|--------0-----------0-----|
-----0-----0-----0-----0--|-----0-----0-----0--------|
--2-----------------------|--------------------------|
--------------------------|--3-----------------------|


--------------------------|--0-----------2-----------|
--3-----------4-----------|--------1-----------1-----|
--------4-----------4-----|-----2-----2-----2-----2--|
-----5-----5-----5-----5--|--------------------------|
--------------------------|--0-----------------------|
--3-----------------------|--------------------------|


--5--------3--------------|-----------------------0--|
--------0-----3-----------|--------------1-----1-----|
-----0--------------0-----|--------0--------2--------|
-----------------0-----0--|-----0-----0--------------|
--0-----------------------|--2-----------0-----------|
--------------------------|--3-----------------------|


--------------3-----------|--3--------2--0--------2--|
--3-----------------------|--------1-----------1-----|
--------0-----------0-----|-----2-----------2--------|
-----0-----0-----0-----0--|--------------------------|
--------------2-----------|--------------3-----------|
--3-----------------------|--3-----------------------|


--3-----------------------|---------------------|--------------------------|
--------------0-----------|-----------3------1--|--0-----------0-----------|
-----------0-----0--------|---------------------|--------0-----------0-----|
--------0-----------0-----|---------------------|-----0-----0-----0-----0--|
-----2-----------------2--|---------------------|--------------------------|
--3-----------------------|--3------------------|--3-----------------------|


--------------------------|--------------------------|
--1--------0--1--------2--|--3-----------0-----------|
--------2-----------2-----|--------0-----------0-----|
-----0-----------0--------|-----0-----0-----0-----0--|
--------------------------|--------------------------|
--------------3-----------|--3-----------------------|


--------------3--------2--|--0-----------------------|
--------------------1-----|--------1-----------1-----|
--------0--------0--------|-----0-----0-----0-----0--|
-----0-----0--------------|--------------2-----------|
--------------------------|--3-----------------------|
--3-----------------------|--------------------------|


--------------3--------0--|--------------3-----------|
--------1-----------1-----|--3-----------------------|
-----0-----0-----0--------|--------0-----------0-----|
--------------------------|-----0-----0-----0-----0--|
--------------------------|--------------------------|
--0-----------------------|--3-----------------------|


--------------------------|--------------------------|
--------------0--------0--|--0-----------0-----------|
--------0-----------0-----|--------2-----------2-----|
-----0-----0-----0--------|-----1-----1-----1-----1--|
--------------------------|--2-----------------------|
--3-----------------------|--------------------------|


--------------2--------2--|--5-----------3-----------|
--------------------------|--------0-----------0-----|
--------2-----------------|-----0-----0-----0-----0--|
-----1-----1--------4-----|--------------------------|
-----------------0--------|--------------------------|
--0-----------------------|--0-----------------------|


--------------2--------0--|--------------3-----------|
--------1-----------1-----|--3-----------------------|
-----2-----2-----2--------|--------0-----------0-----|
--0-----------------------|-----0-----0-----0-----0--|
--------------------------|--------------------------|
--------------------------|--3-----------------------|


--3--------2--0--------2--|--3-----------------------|
--------1-----------1-----|--------------0-----------|
-----2-----------2--------|-----------0-----0--------|
--------------------------|--------0-----------0-----|
--------------3-----------|-----2-----------------2--|
--------------------------|--3-----------------------|


--3----------------|------||
--0----------------|------||
--0----------------|------||
--0----------------|------||
--2----------------|------||
--3----------------|------||
Добавлено: 12.06.2012
Другие материалы по этой песне:

Страница создана 25.02.2012
http://primanota.ru/antonio-cano/estudio-cano-chords.htm
Привет, Гость.
Предлагаем пройти революционный курс по гитаре.
Подарок от PrimaNota.Ru, забирай!