PrimaNota.ru - самый крупный в мире бесплатный архив песенных текстов, аккордов, табулатур и нот


Anton Karas - Third Man Theme - таба, видео

Регистрация Запомнить меня
Войти через:  Facebook Google Twitter Vk Yandex Mail.ru

Anton Karas - Third Man Theme - таба, видео

Печатать
Просмотров: 221
From: Bill & Pat Taylor 
To: guitar@olga.net
Cc: acoustic@olga.net
Subject: TAB: The Third Man Theme, By: Anton Karas, Style of Merle Travis

THE THIRD MAN THEME
BY: ANTON KARAS
ARRANGEMENT BY: Bill Taylor

    A                                                   E7
||---0--1-----------2--1-----------2-----------------|-----------|
||---2--2-----------2--2-----------2-----------------|---5--6----|
||---------2--------------2-----------2-----------2--|---7--7----|
||---------------------------------------------------|---------6-|
||---0--------------0--------------0-----------------|-----------|
||---------------------------------------------0-----|---0-------|

------------------------------------------|----------------------|
---------7--6-----------7-----------------|--5--6-----------7----|
---------7--7-----------7-----------------|--7--7-----------8----|
---------------6-----------6-----------6--|--------6-------------|
------------------------------------------|----------------------|
---------0--------------0-----------0-----|--0--------------0----|


                                 A
------------------------------|---2--1-----------2--1------------|
8-----------9-----------------|---2--2-----------2--2------------|
7-----------7-----------------|---------2--------------2---------|
---6-----------6-----------6--|----------------------------------|
------------------------------|---0--------------0---------------|
------------0-----------0-----|----------------------------------|

---2-----------------|--0--1-----------2--1-----------2----------|
---2-----------------|--2--2-----------2--2-----------2----------|
------2-----------2--|--------2--------------2-----------2-------|
---------------------|-------------------------------------------|
---0-----------------|--0--------------0--------------0----------|
---------------0-----|-------------------------------------------|


            E7
---------|-------------------------------------------------------|
---------|---5--6-----------7--6-----------7---------------------|
------2--|---7--7-----------7--7-----------7---------------------|
---------|---------6--------------6-----------6-----------6------|
---------|-------------------------------------------------------|
---0-----|---0--------------0--------------0-----------0---------|


                                                      A
|--------------------------------------------9-----|---5---------|
|--5--6-----------7--8-----------9-----------5-----|---3---------|
|--7--7-----------8--7-----------7-----------------|---3---------|
|--------6--------------6-----------6-----------6--|-------------|
|--------------------------------------------------|---0---------|
|--0--------------0--------------0-----------0-----|-------------|


                  E7     A
5--5--4--2--0------0--|---0--0--0--0--------0--1--------2--2-----|
---------------4---3--|------------------------------------------|
-------------------1--|---------2-----------------2-----------2--|
----------------------|------------------------------------------|
----------------------|---0-----------------0-----------0--------|
-------------------0--|------------------------------------------|


---------2--1-----|--0--0--0--0--------0-----1--------2----------|
------------------|----------------------------------------------|
---------------2--|--------2-----------------2-----------2-------|
------------------|----------------------------------------------|
---------0--------|--0-----------------0--------------0----------|
------------------|----------------------------------------------|

---------|--1--2-----------1--2-----------1--2-----------1--2----|
---------|-------------------------------------------------------|
------2--|--------2--------------2--------------2--------------2-|
---------|-------------------------------------------------------|
---------|--0--------------0--------------0--------------0-------|
---0-----|-------------------------------------------------------|


      E7
---|---0-----------------------------------------|---------------|
---|---3--------------2-----------0--------------|--5--5--5--5---|
---|------1-----------1-----------1--------------|---------------|
---|---------------------2-----------2--------2--|--------6------|
---|---------------------------------------------|---------------|
---|---0-----------0--------------0--------0-----|--0------------|

------------------------------------------------|----------------|
---------5--6-----------7--7-----------7--6-----|--5--5--5--5----|
------------------------------------------------|----------------|
---------------6--------------6--------------6--|--------6-------|
------------------------------------------------|----------------|
---------0--------------0--------------0--------|--0-------------|

---------------------------------------|-------------------------|
------5--6-----------7-----------------|-----0--------------5----|
---------------------------------------|-----------------7-------|
------------6-----------6-----------6--|--6-----6--------------6-|
---------------------------------------|-------------------------|
------0--------------0-----------0-----|--0--------------0-------|


                              A
---------7-----------8-----|---9--------5--5--4--2--0------------|
---------5-----------5-----|--10-----------------------4---------|
------------7-----------7--|---9---------------------------------|
---------------------------|-------------------------------------|
---------------------------|---0---------------------------------|
---------0-----------0-----|-------------------------------------|


   E7     A
----0--|------------0-----------0-----------0--0-----------------|
----3--|---------2-----------4--2-----------2--2-----------2-----|
----1--|------2--------------2-----2--------------2--------2-----|
-------|---2-----2--------------------------------------------2--|
-------|---------------------------------------------------------|
----0--|---0-----------------0--------------0--------------0-----|


                                       E7
---|-----------0-----------0------------0--0---------------------|
---|--------2-----------4--2------------3--3-----------3---------|
---|-----2--------------2-----2---------------1--------1---------|
---|--2-----2---------------------------------------------2------|
---|-------------------------------------------------------------|
---|--0-----------------0---------------0--------------0---------|

|-----------0-----------0-----------0--0--------------0-----|----|
|--------0-----------4--3-----------3--3-----------3--3-----|----|
|-----1--------------2-----1--------------1--------1-----1--|----|
|--2-----2--------------------------------------------------|----|
|-----------------------------------------------------------|----|
|--0-----------------0--------------0-----------------------|----|


                     A
4-----------0-----|---5--||--------------------------------------|
0-----------0-----|---3--||--------------------------------------|
---1-----------1--|---3--||--------------------------------------|
------------------|------||--------------------------------------|
------------------|---0--||--------------------------------------|
0-----------------|------||--------------------------------------|
Добавлено: 31.03.2012
Другие материалы по этой песне:

Страница создана 31.03.2012
http://primanota.ru/anton-karas/third-man-theme-chords.htm
Привет, Гость.
Предлагаем пройти революционный курс по гитаре.
Подарок от PrimaNota.Ru, забирай!