PrimaNota.ru - самый крупный в мире бесплатный архив песенных текстов, аккордов, табулатур и нот


Антон Диабелли - Preludio - таба, видео

Регистрация Запомнить меня
Войти через:  Facebook Google Twitter Vk Yandex Mail.ru

Антон Диабелли - Preludio - таба, видео

Печатать
Просмотров: 150
-----------------------------------------------------------------------------
                         Anton Diabelli - Preludio
-----------------------------------------------------------------------------
Tabbed by: Travis Wong
Email: travis_wong@hotmail.com

Tuning: EADGBe

This is Anton Diabelli's Preludio, and it is 100% perfect.

Allegretto

e|---------0---2---0---|--------5---7---5---|--------7---6---7--------------|
B|----2-----2---2---2--|----5----5---5---5--|----5----5---5---5-------------|
G|---2-------2---2---2-|---6------6---6---6-|---7------7---7---7------------|
D|---------------------|--------------------|-------------------------------|
A|--0------------------|--0-----------------|-------------------------------|
E|---------------------|--------------------|--0----------------------------|

e|---------0---2---0---|--------0---2---0---|--------5---7---5--------------|
B|-----0----0---0---0--|----2----2---2---2--|----5----5---5---5-------------|
G|----1------1---1---1-|---2------2---2---2-|---6------6---6---6------------|
D|---------------------|--------------------|-------------------------------|
A|---------------------|--0-----------------|--0----------------------------|
E|--0------------------|--------------------|-------------------------------|

e|--------7---6---7----|--------0---2---0---|--------0---2---0--------------|
B|----5----5---5---5---|----0----0---0---0--|----2----2---2---2-------------|
G|---7------7---7---7--|---1------1---1---1-|---2------2---2---2------------|
D|---------------------|--------------------|-------------------------------|
A|---------------------|--------------------|--0----------------------------|
E|--0------------------|--0-----------------|-------------------------------|

e|---------4---5---4---|-------2---3---2----|-------4---5---4---------------|
B|-----2----2---2---2--|----3---3---3---3---|----3---3---3---3--------------|
G|----2------2---2---2-|---2-----2---2---2--|---4-----4---4---4-------------|
D|---------------------|--------------------|-------------------------------|
A|--0------------------|--0-----------------|--0----------------------------|
E|---------------------|--------------------|-------------------------------|

e|--------5---7---5----|--------7----------5----|-------4---------4---------|
B|----5----5---5---5---|----5----5------5---5---|----3---3-----2---2--------|
G|---6------6---6---6--|---7------7----6-----6--|---4-----4---2-----2-------|
D|---------------------|------------------------|---------------------------|
A|--0------------------|------------------------|---------------------------|
E|---------------------|--0----------0----------|--0---------0--------------|

e|-------0-------------|-------0-------------|-------0---------0------------|
B|----0---0--------4---|----0---0--------4---|----0---0-----0---0-----------|
G|---1-----1----2---2--|---1-----1----2---2--|---1-----1---1-----1----------|
D|-------------4-----4-|-------------4-----4-|------------------------------|
A|---------------------|---------------------|------------------------------|
E|--0--------0---------|--0---------0--------|--0---------0-----------------|

e|--------0---------0---|-------0---------0---|-------0---------0-----------|
B|----2----2-----2---2--|----2---2-----2---2--|----3---3-----0---0----------|
G|---2------2---2-----2-|---3-----3---3-----3-|---4-----4---1-----1---------|
D|----------------------|---------------------|-----------------------------|
A|----------------------|---------------------|-----------------------------|
E|--0----------0--------|--0---------0--------|--0---------0----------------|

e|-------0---------0----|-------2---------2---|-------2---------2-----------|
B|----2---2-----2---2---|----3---3-----3---3--|----1---1-----1---1----------|
G|---2-----2---2-----2--|---2-----2---2-----2-|---2-----2---2-----2---------|
D|----------------------|--0---------0--------|--1---------1----------------|
A|--0---------0---------|---------------------|-----------------------------|
E|----------------------|---------------------|-----------------------------|

e|-------5--------5-----|--------8---------8---|-------2---------2----------|
B|----4---4----4---4----|----7----7-----7---7--|----1---1-----1---1---------|
G|---5-----5--5-----5---|---8------8---8-----8-|---2-----2---2-----2--------|
D|--4--------4----------|--7----------7--------|--1---------1---------------|
A|----------------------|----------------------|----------------------------|
E|----------------------|----------------------|----------------------------|

e|--------0---2---0-----|-------0---2---0----|--------0---2---0-------------|
B|----2----2---2---2----|----2---2---2---2---|----0----0---0---0------------|
G|---2------2---2---2---|---2-----2---2---2--|---2------2---2---2-----------|
D|--2-------------------|--------------------|--2---------------------------|
A|----------------------|--------------------|------------------------------|
E|----------------------|--0-----------------|------------------------------|

e|--------0---2---0-----|---------5---7---5----|----------4---5---4---------|
B|----0----0---0---0----|------5---5---5---5---|-------3---3---3---3--------|
G|---1------1---1---1---|.----6-----6---6---6--|------4-----4---4---4------.|
D|----------------------|.---------------------|---------------------------.|
A|----------------------|----0-----------------|----------------------------|
E|--0-------------------|----------------------|-----0----------------------|

e|-------5---7---5------|-------0---2---0----|--------------------|---------|
B|----5---5---5---5-----|----2---2---2---2---|-------2---3---2----|---------|
G|---6-----6---6---6----|---2-----2---2---2--|----2---2---2---2---|---------|
D|----------------------|--------------------|---2-----2---2---2--|---------|
A|--0-------------------|--0-----------------|--0-----------------|---------|
E|----------------------|--------------------|--------------------|---0~~---|

e|--4~~---|---5~~-----|-----------------------------------------------------|
B|--3~~---|---5~~-----|-----------------------------------------------------|
G|--4~~---|---6~~-----|-----------------------------------------------------|
D|--2~~---|---7~~-----|-----------------------------------------------------|
A|--------|---7~~-----|-----------------------------------------------------|
E|--------|---5~~-----|-----------------------------------------------------|




| /  slide up
| \  slide down
| h  hammer-on
| p  pull-off
| ~  vibrato
| +  harmonic
| x  Mute note
=============================================================================
Добавлено: 10.03.2012
Другие материалы по этой песне:
  • Аккорды и текст

Страница создана 10.03.2012
http://primanota.ru/anton-diabelli/preludio-chords.htm
Привет, Гость.
Предлагаем пройти революционный курс по гитаре.
Подарок от PrimaNota.Ru, забирай!