PrimaNota.ru - самый крупный в мире бесплатный архив песенных текстов, аккордов, табулатур и нот


Антитіла - Мила - аккорды и текст, видео

Регистрация Запомнить меня
Войти через:  Facebook Google Twitter Vk Yandex Mail.ru

Антитіла - Мила - аккорды и текст, видео

Печатать
Просмотров: 160
Мила
Антитіла
Интро:
 e|---------------|---------------|---------------|-----------2/3--
 B|------------0--|----------3---1|----------1---0|---------3-------3
 G|----------0---0|--------0------|0-------0------|-0-----2----------
 D|--------2------|2-----2--------|--2---0--------|---0-0------------
 A|------2--------|--2-3----------|---------------|------------------
 E|3-2-0----------|---------------|----3----------|------------------

 e|---------------|---------------|---------------|-----2------------
 B|------------0--|----------3---1|----------1---0|-----3------------
 G|----------0---0|--------0------|0-------0------|-0---2------------
 D|--------2------|2-----2--------|--2---0--------|---0-0------------
 A|------2--------|--2-3----------|---------------|------------------
 E|3-2-0----------|---------------|----3----------|------------------

 Куплеты:
 e|---------------|---------------|---------------|-----------2/3--
 B|------------0--|----------3---1|----------1---0|---------3-------3
 G|----------0---0|--------0------|0-------0------|-0-----2----------
 D|--------2------|2-----2--------|--2---0--------|---0-0------------
 A|------2--------|--2-3----------|---------------|------------------
 E|3-2-0----------|---------------|----3----------|------------------

 e|---------------|---------------|---------------|-----------2/3--
 B|------------0--|----------3---1|----------1---0|---------3-------3
 G|----------0---0|--------0------|0-------0------|-0-----2----------
 D|--------2------|2-----2--------|--2---0--------|---0-0------------
 A|------2--------|--2-3----------|---------------|------------------
 E|3-2-0----------|---------------|----3----------|------------------

 Припев: Играть аккордами и простым боем! 
 Аккорды: Em | C | G | D   
Добавлено: 17.09.2015
Другие материалы по этой песне:
  • Аккорды и текст

Страница создана 17.09.2015
http://primanota.ru/antitla/mila-chords.htm
Привет, Гость.
Предлагаем пройти революционный курс по гитаре.
Подарок от PrimaNota.Ru, забирай!