PrimaNota.ru - самый крупный в мире бесплатный архив песенных текстов, аккордов, табулатур и нот


Antitainment - Unkonkret Vs Wahllos - таба, видео

Регистрация Запомнить меня
Войти через:  Facebook Google Twitter Vk Yandex Mail.ru

Antitainment - Unkonkret Vs Wahllos - таба, видео

Печатать
Просмотров: 126
Antitainment - Unkonkret vs Wahllos

##Intro###
E|-------|
B|-------|
G|----87-|
D|-87-87-|
A|-87-65-|
E|-65----|

E|---------------------|
B|---------------------|
G|----87-8-10-7-5-3-2--|
D|-87-87-8-10-7-5-3-2--|
A|-87-65-6--8-5-3-1-0--|
E|-65------------------|

E|------------|
B|------------|
G|-8----------|
D|-8-5--5-7-8-|
A|-6-5--------|
E|---3--------|

Orgelimitat

E|-----------------------|---|
B|-----------------------|---|
G|---------------7---5---|-7-|
D|-5-7-8-5---7---------8-|---|
A|---------5---5---5-----|---|
E|-----------------------|---|

##Verse##

Orgelimitat
E|-------------|
B|-------------|
G|-----2---2-0-|
D|---0---------|
A|-------------|
E|-3-----3-----|

"Totstellen, Tunnelgraben"
E|------------------|
B|------------------|
G|8-5-7---5-7-8-10--|
D|8-5-7-8-5-7-8-10--|
A|6-3-5-8-3-5-6--8--|
E|------6-----------|

#Chorus##

E|------------|
B|------------|
G|-8----------|
D|-8-5--5-7-8-|
A|-6-5--------|
E|---3--------|

Orgelimitat

E|-----------------------|---|
B|-----------------------|---|
G|---------------7---5---|-7-|
D|-5-7-8-5---7---------8-|---|
A|---------5---5---5-----|---|
E|-----------------------|---|




##Zwischenteil##
Orgelimitat
E|-----------------------|--------------|
B|-----------------------|--------------|
G|---------------7---5---|------7-5-----|
D|-5-7-8-5---7---------8-|5-7-8-----8-7-|
A|---------5---5---5-----|--------------|
E|-----------------------|--------------|


Bass-Teil (1:33)
E|--
B|--
G|--
D|--
A|--
E|3-


Ab 1:46
E|-----|----------------------------|
B|-----|----------------------------|
G|--10-|-9-10--10-9-7---------------|
D|7-10-|-9-10---------10-9-7--------|
A|7--8-|-7--8----------------10-8-7-|
E|5----|----------------------------|


Orgelimitat
E|-------------|-0-----0-|
B|-------------|---------|
G|-----4---4-2-|-----2---|
D|---2---------|---2-----|
A|-0-----0-----|---------|
E|-------------|---------|

Ich hab schon echt alles versucht.
Totstellen, Tunnel graben, einfach nicht mehr mitmachen.
Was soll ich sagen? Ich stecke fest.
Es führt vorerst kein Ausweg aus dem Jetzt.
Weißt du was ich meine, wenn ich sage Trostlos?
Weißt du was ich meine, wenn ich sage Langeweile?
Ganz genau!
Ich meine dich und mich!

Du hast keine Wahl, du kannst nur wahllos wählen.
Zwischen schwarz oder weiß und dem ganzen grau dazwischen.

Weißt du, das was ich meine liegt jenseits von Trostlos.
Ich kann es nicht benennen,
doch heißt es ganz bestimmt nicht Langeweile.
Eher ne Skizze auf Papier, das in nem Nebensatz erwähnt wird.
Endlich Stellung beziehen für das Unkonkrete!
Добавлено: 22.04.2012
Другие материалы по этой песне:

Страница создана 22.04.2012
http://primanota.ru/antitainment/unkonkret-vs-wahllos-chords.htm
Привет, Гость.
Предлагаем пройти революционный курс по гитаре.
Подарок от PrimaNota.Ru, забирай!