PrimaNota.ru - самый крупный в мире бесплатный архив песенных текстов, аккордов, табулатур и нот


Antiskeptic - Nothing To Say - таба, видео

Регистрация Запомнить меня
Войти через:  Facebook Google Twitter Vk Yandex Mail.ru

Antiskeptic - Nothing To Say - таба, видео

Печатать
Просмотров: 143
************************************************
* Song : Nothing to Say
* By : Antiskeptic
* Tabbed by : Andrew Sellen - 15/6/03
************************************************


INTRO
E----------------------------------|---------------------------------|
B----------------------------------|---------------------------------|
G----------------------------------|---------------------------------|
D--4-4-4-0---0-4-4-4-0---0-4-4-0-0-|-4-4-4-0---0-4-4-4-0---0-4-4-0-0-|
A--4-4-4-0---0-4-4-4-0---0-4-4-0-0-|-4-4-4-0---0-4-4-4-0---0-4-4-0-0-|
D--4-4-4-0---0-4-4-4-0---0-4-4-0-0-|-4-4-4-0---0-4-4-4-0---0-4-4-0-0-|
                                                   
E----------------------------------|---------------------------------|
B----------------------------------|---------------------------------|
G----------------------------------|---------------------------------|
D--7-7-7-0---0-7-7-7-0---0-7-7-0-0-|-9-9-9-0---0-9-9-9-0---0-9-9-0-0-|
A--7-7-7-0---0-7-7-7-0---0-7-7-0-0-|-9-9-9-0---0-9-9-9-0---0-9-9-0-0-|
D--7-7-7-0---0-7-7-7-0---0-7-7-0-0-|-9-9-9-0---0-9-9-9-0---0-9-9-0-0-|
                     
E----------------------------------|
B----------------------------------|
G----------------------------------|
D--4-4-4-0---0-4-4-4-0---0-4-4-0-0-|
A--4-4-4-0---0-4-4-4-0---0-4-4-0-0-|
D--4-4-4-0---0-4-4-4-0---0-4-4-0-0-|


VERSE
So they said you're a vagrant 
Not your patch it's a car park 
E----------------------------------|---------------------------------|
B----------------------------------|---------------------------------|
G----------------------------------|---------------------------------|
D----2---2---2---2---0---0---0---0-|-4-4-4-0---0-4-4-4-0---0-4-4-0-0-|
A----2---2---2---2---0---0---0---0-|-4-4-4-0---0-4-4-4-0---0-4-4-0-0-|
D----2---2---2---2---0---0---0---0-|-4-4-4-0---0-4-4-4-0---0-4-4-0-0-|
Juveniles on my land go clear off 

Once again another picture 
Social order is weighed off
E----------------------------------|-5-5-5-5---5-5-5-5---5-5-5-------|
B----------------------------------|-5-5-5-5---5-5-5-5---5-5-5-------|
G----------------------------------|-7-7-7-7---7-7-7-7---7-7-7-------|
D----2---2---2---2---0---0---0---0-|-7-7-7-7---7-7-7-7---7-7-7-------|
A----2---2---2---2---0---0---0---0-|-5-5-5-5---5-5-5-5---5-5-5-------|
D----2---2---2---2---0---0---0---0-|-0-0-0-0---0-0-0-0---0-0-0-------| 
Up against the faces of the young for all I know 


CHORUS
E----------------------------------|---------------------------------|
B----------------------------------|---------------------------------|
G--2-2-2-2---2-2-2-2---------------|--1-1-1-1---1-1-1-1--------------|
D--2-2-2-2---2-2-2-2---------------|--2-2-2-2---2-2-2-2--------------|
A--0-0-0-0---0-0-0-0---------------|--2-2-2-2---2-2-2-2--------------|
D----------------------------------|--2-2-2-2---2-2-2-2--------------|
So you're young          Well that's alright

E----------------------------------|---------------------------------|
B----------------------------------|---------------------------------|
G--2-2-2-2---2-2-2-2---------------|---------------------------------|
D--0-0-0-0---0-0-0-0---------------|-4-4-4-4---4-4-4-4-4---4-4-4-4---|
A--0-0-0-0---0-0-0-0---------------|-4-4-4-4---4-4-4-4-4---4-4-4-4---|
D--0-0-0-0---0-0-0-0---------------|-4-4-4-4---4-4-4-4-4---4-4-4-4---|
No matter who you are (Don't believe that there's nothing to say nothing to say)

Repeat chorus then back to intro...

THE EXTRA BIT IN VERSE 2
E----------------------------------|-----4-4-5-5-4-4-----------------|
B------7-7-----5-5-----7-7-----5-5-|-----------------5-5-------------|
G----------------------------------|-6-6-----------------7-7-6-6-4-4-|
D--4-4-----4-4-----4-4-----4-4-----|---------------------------------|
A----------------------------------|---------------------------------|
D----------------------------------|---------------------------------|
Congregate another victim       Realise the inner sanctum 

INSTRUMENTAL BIT AFTER 2ND CHORUS
E----------------------------------|---------------------------------|
B----------------------------------|---------------------------------|
G----------------------------------|---------------------------------|
D----------------------------------|---------------------------------|
A----------------------------------|---------------------------------|
D--4-4-0-4-0-0-4-4-0-4-0-0-4-4-0-0-|-7-7-0-7-0-0-7-7-0-7-0-0-7-7-0---|
                                                   
E----------------------------------|---------------------------------|
B----------------------------------|---------------------------------|
G----------------------------------|---------------------------------|
D--2---0-2-0---2---0-2-0---2---0---|--4---0-4-0---4---0-4-0----------|
A--2---0-2-0---2---0-2-0---2---0---|--4---0-4-0---4---0-4-0----------|
D--2---0-2-0---2---0-2-0---2---0---|--4---0-4-0---4---0-4-0----------|

E----------------------------------|---------------------------------|
B----------------------------------|---------------------------------|
G----------------------------------|---------------------------------|
D--7---0-7-0---7---0-7-0---7---0---|--2---0-2-0---2---0-2-0---2---0--|
A--7---0-7-0---7---0-7-0---7---0---|--2---0-2-0---2---0-2-0---2---0--|
D--7---0-7-0---7---0-7-0---7---0---|--2---0-2-0---2---0-2-0---2---0--|

E----------------------------------|
B----------------------------------|
G----------------------------------|
D--4-4-4-0---0-4-4-4-0---0-4-4-0---|
A--4-4-4-0---0-4-4-4-0---0-4-4-0---|
D--4-4-4-0---0-4-4-4-0---0-4-4-0---|

LAST BIT
E----------------------------------|---------------------------------|
B----------------------------------|---------------------------------|
G----------------------------------|---------------------------------|
D--6666---6666---6666---6666-------|-9999---9999---9999---9999-------|
A--4444---4444---4444---4444-------|-7777---7777---7777---7777-------|
D--4444---4444---4444---4444-------|-7777---7777---7777---7777-------|
Rebel Rebel 'cause your the new sensation

E----------------------------------|---------------------------------|
B----------------------------------|---------------------------------|
G----------------------------------|---------------------------------|
D--0000---0000---2222---2222-------|--4444---4444---4444---4444------|
A--0000---0000---2222---2222-------|--4444---4444---4444---4444------|
D--0000---0000---2222---2222-------|--4444---4444---4444---4444------|
Rebel Rebel 'cause your the new sensation

2ND GUITAR PART FOR LAST BIT
E--5554---4404---5554---4404-------|
B--5555---5555---5555---5555-------|
G----------------------------------|
D----------------------------------|
A----------------------------------|
D----------------------------------|
Добавлено: 28.02.2012
Другие материалы по этой песне:

Страница создана 26.02.2012
http://primanota.ru/antiskeptic/nothing-to-say-chords.htm
Привет, Гость.
Предлагаем пройти революционный курс по гитаре.
Подарок от PrimaNota.Ru, забирай!