PrimaNota.ru - самый крупный в мире бесплатный архив песенных текстов, аккордов, табулатур и нот


Antiskeptic - Ill Follow - таба, видео

Регистрация Запомнить меня
Войти через:  Facebook Google Twitter Vk Yandex Mail.ru

Antiskeptic - Ill Follow - таба, видео

Печатать
Просмотров: 156
-------------------------------------------------------------------------------
                             I'LL FOLLOW - Antiskeptic
-------------------------------------------------------------------------------
Tabbed by: Lachy C / Drummerrrrr?
Email: blade_punk_ at hotmail.com

Tuning: Drop D

Amazing song by a great Aussie band, this song was totally insane at any show. Too bad 
never be seen live again…
This is my first tab, I figured out the general parts but nothing is %100. The verse is 
a li'l iffy and the main riff I'm not totally happy with but you get a decent idea.

Intro Riff
First time
e|---------------------------------------------------------------------------|
B|---------------------------------------------------------------------------|
G|---------------------------------------------------------------------------|
D|0-3-3-0-3-3-5-0-0-7-5-0-3-0-2-0---------------------------3---3/5----------|
A|---------------------------------------------------------------------------|
D|--------------------------------5-5-5-5-5-5-5-7-3-3-3-3-3---3--------------|

Second time
e|--------------------------------------------------------------------------|
B|--------------------------------------------------------------------------|
G|--------------------------------------------------------------------------|
D|0-3-3-0-3-3-5-0-0-7-5-0-3-0-2-0---------------------------------1-1-1-1---|
A|----------------------------------------------------------------1-1-1-1---|
D|--------------------------------5-5-5-5-5-5-5-5-3-3-3-3-3-3-3-3\1-1-1-1---|

Verse
e|---------------------------------------------------------------------------|
B|---------------------------------------------------------------------------|
G|-7-7-7-7-5-5-5-5-3-3-3-3-5-5-5-5-------------------------------------------|
D|-7-7-7-7-7-7-7-7-3-3-3-3-5-5-5-5-------------------------------------------|
A|---------------------------------------------------------------------------|
D|---------------------------------------------------------------------------|

'Irritate me and frustrate me so…'
e|-------|
B|-------|
G|--5~---|
D|--5~---|
A|--3~---|
D|-------|

Pre-Chorus
'The cry of a generation…'
Chords - G G#
e|---------------------------------------------------------------------------|
B|---------------------------------------------------------------------------|
G|-4---5---5---5---5---5---5--5---5---5---5---5---5--------------------------|
D|---5---5---5---5---5---5---5--5---6---6---6---6---6b-----------------------|
A|---------------------------------------------------------------------------|
D|---------------------------------------------------------------------------|

Chorus
Chords - D F G A# C
e|---------------------------------------------------------------------------|
B|---------------------------------------------------------------------------|
G|---------------------------------------------------------------------------|
D|-0----3----5----8--10------------------------------------------------------|
A|-0----3----5----8--10------------------------------------------------------|
D|-0----3----5----8--10------------------------------------------------------|

Intro Riff

Verse

Pre-Chorus

Chorus

Post-Chorus
Not too sure...
Chords - C D?

Pre-Solo Riff
e|---------------------------------|
B|---------------------------------|
G|---------------------------------|
D|0-3-3-0-3-3-5-0-0-7-5-0-3-0-2-0--|  x 3
A|---------------------------------|
D|---------------------------------|

e|---------------------------------|
B|---------------------------------|
G|---------------------------------|
D|0-3-3-0-3-3-0-3-3-0-3-3-0-3-3-0--|  x 1
A|---------------------------------|
D|---------------------------------|

Solo
e|----------------------------------------------------------15-17---------|
B|-10b--------------------------------------------------------------------|
G|-10b-10-10-10b~--7-10-12-7-10~---7-10-12-7-10~---10-12-14-------13-15---|
D|------------------------------------------------------------------------|
A|------------------------------------------------------------------------|
D|------------------------------------------------------------------------|

e|----------------------------------------------------------------------------|
B|-10-15-13-8-10~----8-8h10p8-8-8-8-8h10p8------------------------------------|
G|----------------------------------------------------------------------------|
D|---------------------------------------------10-10---10-10---10-------------|
A|---------------------------------------------10-10---10-10---10-------------|
D|---------------------------------------------10-10---10-10---10-------------|

Haven't figured out the picking/melody of the next part.
Chords go something like...
D F A# C C#

'Say your prayers, say your prayers, say your PRAYERS…..'
e|---------------------------------------------------------------------------|
B|---------------------------------------------------------------------------|
G|---------------------------------------------------------------------------|
D|-0~-----------------------5-5-8-8-7-7--------------------------------------|
A|-0~------------------------------------------------------------------------|
D|-0~------------------------------------------------------------------------|

Chorus

Outro
e|---------------------------------|
B|---------------------------------|
G|---------------------------------|
D|0-3-3-0-3-3-5-0-0----0-0-0-------|  x 3
A|---------------------0-0-0-------|
D|---------------------0-0-0-------|


************************************

| /   slide up
| \   slide down
| p   pull-off
| ~   let ring
| b   Bend

************************************
Добавлено: 02.05.2012
Другие материалы по этой песне:
  • Аккорды и текст

Страница создана 02.05.2012
http://primanota.ru/antiskeptic/ill-follow-chords.htm
Привет, Гость.
Предлагаем пройти революционный курс по гитаре.
Подарок от PrimaNota.Ru, забирай!