PrimaNota.ru - самый крупный в мире бесплатный архив песенных текстов, аккордов, табулатур и нот


Antiskeptic - Hello Halo - таба, видео

Регистрация Запомнить меня
Войти через:  Facebook Google Twitter Vk Yandex Mail.ru

Antiskeptic - Hello Halo - таба, видео

Печатать
Просмотров: 169
Antiskeptic- Hello Halo
Drop D Tuning, Capo on 1st fret

Comments and improvements welcome :)
Enjoy

Intro

e|----2222--1111------------------------|
B|----------------------7777—6666-------|
G|-----------------------------------66-|
D|-----------------------------------66-| Repeat 3 times
A|--11----11----44-66-99----99----66-44-|
D|--11----11----44-66-99----99----66----|
(They're all ones, not 11s… and this is played fast)

e|---------------------|
B|---------------------|
G|---------------------| Repeat 4 times
D|---------------------|
A|-11-11-11-11-----4-0-|
D|-11-11-11-11-4-6-----|
(ones again, and they're staccato)

Verse

e|---------------|
B|-4----22222222-| 
G|---3-4---------| 
D|---------------| 
A|---------------| 
D|---------------| 

e|-------------------------------------|
B|-------------------------------------|
G|----------------------44444-66666666-| 
D|-55555555-66666666-44444444-66666666-|
A|-------------------------------------|
D|-------------------------------------|

e|-------------------------------------|
B|-44444444------------------22222222--|
G|---------33333333-44444444-----------|
D|-------------------------------------|
A|-------------------------------------|
D|-------------------------------------|

e|-------------------------------------|
B|-------------------------------------|
G|----------------------44444-66666666-| 
D|-55555555-66666666-44444444-66666666-|
A|-------------------------------------|
D|-------------------------------------|

e|---------------------------------------------------|
B|----------------------------1414-1414-1414-1414----|
G|---------------------------- x x- x x- x x- x x-15-|
D|-66666666-88888888-99999999-1111-1111-1111-1111-13-|
A|-66666666-88888888-99999999-1111-1111-1111-1111-13-|
D|-66666666-88888888-99999999-1111-1111-1111-1111-13-|
(These are 11s…)

Prechorus
e|----------------------------------------------------------------------|
B|---------------------222---222---22----------222----222---22----------|
G|-15-----15-15---------------------------------------------------------|
D|---13---------13------------------------------------------------------|
A|-----13-----------------11-----11---11-44-66-----11-----11---11-44-66-|
D|------------------------11-----11---11-44-66-----11-----11---11-44-66-|
(these are ones)

Chorus
e|-----------------------------------------------------------|
B|-12--------------------4444---2222-----12------------------|
G|- x------------------------------------ x------------------|Repeat
D|- 9 (strum 16 times)------------------- 9 (strum 16 times)-|
A|- 9-----------------11------11-----4466 9------------------|
D|- 9-----------------11------11-----4466 9------------------|
(these are ones, not elevens)

First ending after ^^
e|---|
B|---|
G|---|
D|-6-| (strum 16 times)Then repeat chorus again, but go to post chorus and don't play <-
A|-6-|
D|-6-|

Post Chorus

e|--------------------------------------------------------------------------|
B|--------------------------------------------------------------------------|
G|---6----------------------------------------------------------------------|
D|-6-6----------------------------------------------------------------------|
A|-6-4-1-1----1-4-6-1-1----8-8-4-1-1----1-4-6-1-1----8-8-4-1-1----1-4-6-1-1-|
D|-4---1-1----1-4-6—1-1----8-8-4-1-1—---1-4-6-1-1----8-8-4-1-1----1-4-6-1-1-|
(play fast)

continued…
e|----------------------------------|
B|----------------------------------|
G|----------------------------------|
D|----------------------------------| random effects here. W/bar? Just muck around :)
A|--8-8-4-1-1---1-4-6-1-1---8-8-4-1-|
D|--8-8-4-1-1—--1-4-6-1-1---8-8-4-1-|

You talking to me… re-entry

e|--------------------------------------------------------|
B|--------------------------------------------------------|
G|-8-----66666666--P--------------------------44-66666666-|
D|-8-8-9-66666666--O--55555555-66666666-44444444-66666666-|
A|-6-8-9-44444444--W--------------------------------------|
D|---8-9-----------!--------------------------------------|

Final Chorus is the same, with the repeats and everything.

Outro
e|----------------------------------------------|
B|----------------------------------------------|
G|----------------------Repeat 3 times----------|
D|----------------------------------------------|
A|-11-11-11-11-----4-0-----------------11-11-11-|
D|-11-11-11-11-4-6---------------------11-11-11-|

(These are ones, and they're staccato)

I've done my best! Any improvements would be appreciated- email to endlesslyguitar@gmail.com
Thanks, and enjoy!
Добавлено: 19.06.2012
Другие материалы по этой песне:
  • Аккорды и текст

Страница создана 28.05.2012
http://primanota.ru/antiskeptic/hello-halo-chords.htm
Привет, Гость.
Предлагаем пройти революционный курс по гитаре.
Подарок от PrimaNota.Ru, забирай!