PrimaNota.ru - самый крупный в мире бесплатный архив песенных текстов, аккордов, табулатур и нот


Antiskeptic - Hallelujah - таба, видео

Регистрация Запомнить меня
Войти через:  Facebook Google Twitter Vk Yandex Mail.ru

Antiskeptic - Hallelujah - таба, видео

Печатать
Просмотров: 166
Уроки эстрадного вокала в Санкт-Петербурге
---------------------------------------------------------------------------
                             HALLELUJAH - ANTISKEPTIC
---------------------------------------------------------------------------
Tabbed by: Leigh Mooney
Email: ldmooney@bigpond.net.au

Tuning: Dropped D

INTRO
e|--3-------|
B|----0-----|
G|-------5--|
D|----------|
A|----------|
E|----------|

MAIN RIFF
e|----------------------------------------------|
B|----------------------------------------------|
G|----------------------------------------------|
D|--5-5--5-5s--------5-7s10---55-55--------5h7p5|
A|--3-3--3-3s--3-5s7----------33-33-3-5s7-------|
E|----------------------------------------------|


e|----------------------------------------|
B|----------------------------------------|
G|----------------------------------------|
D|------------------------5-7s10----------|
A|77--7-7--55--55--3-5s7----------7h10----|
E|55--5-5--33--33-------------------------|




VERSE
e|------------------------------------------------------------------------|
B|------------------------------------------------------------------------|
G|------------------------------------------------------------------------|
D|-55-55----55--55-----------------------5-7s10---------------------------|
A|-33-33----33--33---77-77--55-55--3-5s7--------7h10----------------------|
E|-------------------55-55--33-33-----------------------------------------|


e|-------------------------------------------------------------------------|
B|-------------------------------------------------------------------------|
G|-------------------------------------------------------------------------|
D|-55-55----55--55---------------------------------------------------------|
A|-33-33----33--33---77-77--55-55--3---------------------------------------|
E|-------------------55-55--33-33------------------------------------------|

Pre-chorus "stance of a lonesome rider"
e|-----------------------|
B|----------------6------|
G|----------------5------|
D|--0--3--0--2----3------|
A|--0--------2-0--3------|
E|--0--------2-0--3------|

CHORUS
e|--0----0----0----1----|
B|--0----0----0----0----|
G|--5----4----2----2----|
D|--7----5----2----3----|
A|--0---------0---------|
E|------------0---------|

End of chorus high riff

e|-3p0------3p0---------|
B|-----0h1------0h1-----|
G|----------------------|
D|----------------------|
A|----------------------|
E|----------------------|


BREAK OUT
e|------------------------------------------|
B|------------------------------------------|
G|--12--9--10---4--5--7--9--10--9--7--5-----| x2
D|------------------------------------------|
A|--10--7--8----2--3--5--7--8---7--5--3-----|
E|------------------------------------------|

Palm muted part

e|---------------------------------------3p0------3p0----------------------|
B|-----0--------0-------0----------0---------0h1------0h1------------------|
G|---5---5----5---5---5---5------5---5-------------------------------------|
D|-3--------3-------3----------3-------------------------------------------|
A|-------------------------------------------------------------------------|
E|-------------------------------------------------------------------------|

DELAY PART              

e|-3--0-1-0----3--0--1---0----------------|
B|----------------------------0----1----3-|
G|----------------------------------------|
D|----------------------------------------|
A|----------------------------------------|
E|----------------------------------------|

2nd Guitar
e|-------------------------------------|
B|----8-8--6-5-6------8-8--6-5-6-------|
G|---------------5---------------4-5-7-|
D|-------------------------------------|
A|-------------------------------------|
E|-------------------------------------|

DRUM ROLL PART
e|-------------------------------------------------------------------------|
B|-------------------------------------------------------------------------|
G|-12---9----12---9---4--5---7----12s14s12--12--9---4--5--7----------------|
D|-------------------------------------------------------------------------|
A|-10---7----10---7---2--3---5----10s12s10--10--7---2--3--5----------------|
E|-------------------------------------------------------------------------|

DELAY BIT WITH TALKING BACKGROUND
e|-------------------------------------------------------------------------|
B|-------------------------------------------------------------------------|
G|--12---9-10--9---12---9--10--9------4--5--7------------------------------|
D|-------------------------------------------------------------------------|
A|--10---7--8--7---10---7---8--7------2--3--5------------------------------|
E|-------------------------------------------------------------------------|

The rest is pretty much like the last parts, he just plays it with wah and other effects


| /  slide up
| \  slide down
| h  hammer-on
| p  pull-off
| ~  vibrato
| +  harmonic
| x  Mute note
===============================================================================
Добавлено: 24.07.2012
Другие материалы по этой песне:
  • Аккорды и текст

Страница создана 24.07.2012
http://primanota.ru/antiskeptic/hallelujah-chords.htm
Привет, Гость.
Предлагаем пройти революционный курс по гитаре.
Подарок от PrimaNota.Ru, забирай!