PrimaNota.ru - самый крупный в мире бесплатный архив песенных текстов, аккордов, табулатур и нот


Antiskeptic - Beautiful In White - текст песни, таба, видео

Регистрация Запомнить меня
Войти через:  Facebook Google Twitter Vk Yandex Mail.ru

Antiskeptic - Beautiful In White - текст песни, таба, видео

Печатать
Просмотров: 146
song:bUtiful in white
band:AntiSkeptic

hey, my names jordan and this is my 1st tab, ithink its about 90% correct
but it aint perfect. anyways hope u like it.u will need the song to get
the timing right.

verse 1/3    both guitars
||-----------------------------------------------------------------------||
||---------------------------------------------------------------7-------||
||------7-----------9---8----------7-----------------------------7-------||
||5-----7-----7----9---9-----5-----7-----4----44-22----------5---5--7----||
||5-----5-----7---7---6------5-----5-----4----------55-44----5------7----||
||5-----------7--------------5-----------4-------------------5------7----||
PM                ...                         .. .. .. ..

chorus
||-----------------------------------------------------------------||
||-----------------------------------------------------------------||
||---4------6------7------2------4---------------------------------||
||--4-4----7-7----7-7----2-2----4-4-----5-----5--------------------||
||2----2-4----4-5----5-0----0-2----2---5-5----5--5555555-----------||
||-----------------------------------5----5---4--4444444-----------||


!!SPEED PICKUP!!

main riff

 on 2nd time change to 
||--------------|-|---|---|----------------------------------||
||--------------|-|---|---|---7/9----------------------------||
||---7/6----7/6-v-v---|---v---x/x----------------------------||
||-0-x/x--0-x/x-0h4---|---4---5/7----------------------------||
||-0-5/4--0-5/4-0h4---|---4----------------------------------||
||-0------0-----0h4---|---4----------------------------------||


verse 2 guitar 1             guitar 2
||------------------------|------------------------------------||
||------------------------|------------------------------------||
||------------------------|------9----8------------------------||
||-xx5----<---repeat------|-----9----9--<--listen 4 wen 2 play-||
||-xx5--------------------|----7----6--------------------------||
||-xx5--------------------|------------------------------------||
pm ..

                 
play chorus      
                            
                            
bridge/chords                
|--------------------------|
|--------------------------|
|---4----7-----------------|
|---4----7-----(finish with verse 2 guitar 1)
|---2----5-----------------|
|--------------------------|


play main riff


interlude/chords
|-------------------------------|
|theres a lot of pal mutes here-|
|-------------------------------|
|5---7---8---10---12------------|
|5---7---8---10---12------------|
|5---7---8---10---12------------|


verse3: same as verse 1


play chorus

play again as barre chords

play main riff


outro
|---------------------------------------------------------------------|
|---------------------------------------------------------------------|
|----9/11------9/11-11/9-9/7-------7/6------7/6------7/9--------------|
|-0--x/x----0--x/x---x/x-x/x----0--x/x---0--x/x--4---x/x-4-4-4-4-4444-|
|-0--7/9----0--7/9---9/7-7/5----0--5/4---0--5/4--4---5/7-4-4-4-4-4444-|
|-0---------0-------------------0--------0-------4-------4-4-4-4-4444-|

the end...................................................
Добавлено: 31.07.2012
Другие материалы по этой песне:
  • Аккорды и текст

Страница создана 15.05.2012
http://primanota.ru/antiskeptic/beautiful-in-white-chords.htm
Привет, Гость.
Предлагаем пройти революционный курс по гитаре.
Подарок от PrimaNota.Ru, забирай!