PrimaNota.ru - самый крупный в мире бесплатный архив песенных текстов, аккордов, табулатур и нот


Antiseen - Youre Gonna Tote An Ass Kickin - таба, бас-таба, видео

Регистрация Запомнить меня
Войти через:  Facebook Google Twitter Vk Yandex Mail.ru

Antiseen - Youre Gonna Tote An Ass Kickin - таба, бас-таба, видео

Печатать
Просмотров: 67
Verse
E-------------------------------------|
B-------------------------------------|
G-------------------------------------|
D-7/9-9-9--7/9-9-9--7/9--7/9--7/9-9-9-|
A-7/9-9-9--7/9-9-9--7/9--7/9--7/9-9-9-|
E-5/7-7-7--5/7-7-7--5/7--5/7--5/7-7-7-|


Chorus
E----------------------------------|
B----------------------------------|
G-9-9-9-9--11111111----------------|
D-9-9-9-9--11111111-7/-9-9--7/-9-9-|
A-7-7-7-7--9-9-9-9--7/-9-9--7/-9-9-|
E-------------------5/-7-7--5/-7-7-|
Добавлено: 21.10.2015
Другие материалы по этой песне:
  • Аккорды и текст

Страница создана 21.10.2015
http://primanota.ru/antiseen/youre-gonna-tote-an-ass-kickin-chords.htm
Привет, Гость.
Предлагаем пройти революционный курс по гитаре.
Подарок от PrimaNota.Ru, забирай!