PrimaNota.ru - самый крупный в мире бесплатный архив песенных текстов, аккордов, табулатур и нот


Antiseen - White Trash Bitch - таба, бас-таба, видео

Регистрация Запомнить меня
Войти через:  Facebook Google Twitter Vk Yandex Mail.ru

Antiseen - White Trash Bitch - таба, бас-таба, видео

Печатать
Просмотров: 61
Verse
E----------------------------|
B----------------------------|
G----------------------------|
D-9-9--9-9-9-9--7-7--7-7-7-7-|
A-9-9--9-9-9-9--7-7--7-7-7-7-|
E-7-7--7-7-7-7--5-5--5-5-5-5-|


Chorus ("You little white trash bitch that what he calls you...")
E-----------------------------------------------------------------------------------------------|
B-----------------------------------------------------------------------------------------------|
G-----------------------------------------------------------------------------------------------|
D-5-5--3-3-3--5-5--3-3-3--5-5--3-3-3--5--*-----5-5--3-3-3--5-5--3-3-3-5-5-3-3-3-5-5-5-5-5-5-5-5-|
A-5-5--3-3-3--5-5--3-3-3--5-5--3-3-3--5--*-----5-5--3-3-3--5-5--3-3-3-5-5-3-3-3-5-5-5-5-5-5-5-5-|
E-3-3--1-1-1--3-3--1-1-1--3-3--1-1-1--3--*-----3-3--1-1-1--3-3--1-1-1-3-3-1-1-1-3-3-3-3-3-3-3-3-|


Listen for order
Добавлено: 27.12.2015
Вам также может быть интересно:
Другие материалы по этой песне:
  • Аккорды и текст

Страница создана 21.10.2015
http://primanota.ru/antiseen/white-trash-bitch-chords.htm
Привет, Гость.
Предлагаем пройти революционный курс по гитаре.
Подарок от PrimaNota.Ru, забирай!