PrimaNota.ru - самый крупный в мире бесплатный архив песенных текстов, аккордов, табулатур и нот


Antiseen - We Got This Far Without You - бас-таба, видео

Регистрация Запомнить меня
Войти через:  Facebook Google Twitter Vk Yandex Mail.ru

Antiseen - We Got This Far Without You - бас-таба, видео

Печатать
Просмотров: 112
Уроки эстрадного вокала в Санкт-Петербурге
Verse                       
G---------------------------------------9-7---|---------------------------------------------|
D-------------------------------------------9-|---------------------------------------------|
A------------------------------5-5-5--7-------|------------------------------5-5-5--7-7-7-7-|
E-5/7--7-7--5/7--7-7--5/7--7-7----------------|-5/7--7-7--5/7--7-7--5/7--7-7----------------|


First Chorus 
G--------------------------9-7-----------------------------------------------|-------------------------|
D-----------------------------9-7--------------------------------------------|-------------------------|
A--------------------------------9-7-----------------------------------------|----------5-5-5--7-7-7-7-|
E-3-3-3-3--5-5-5-5--7-7-7-7---------9-7--3-3-3-3--5-5-5-5--7-7-7-5/7-7-7-7-7-|-5/7--7-7----------------|


Second Chorus 
G--------------------------9-7-------------------------------------------------------------------------|
D-----------------------------9-7----------------------------------------------------------------------|
A--------------------------------9-7-------------------------------------------------------------------|
E-3-3-3-3--5-5-5-5--7-7-7-7---------9-7--3-3-3-3--5-5-5-5--7-7-7-5/7-7-7-7-7--7(hold)------------------|


Bridge              x2                    x2            x4            x4            x4
G---------------------|---------------------|-------------|----------7--|-------------|
D---------------------|---------------------|-------------|-9-9-9-9-9-9-|-------------|
A---------------------|-7/9(Hold)-----------|----------5--|-------------|----------5--|
E-5/7(Hold)-----------|---------------------|-7-7-7-7-7-7-|-------------|-7-7-7-7-7-7-|


G---------------------|-----------------------------------------|
D---------------------|-9-9-9-9-9-9-9-9-9-9-9-9-9-9-9-9-9-9-9-9-| (Then right back into the verse)
A---------------------|-----------------------------------------|
E-7(hold)-------------|-----------------------------------------|


Please note that for the Verse sometimes it has the fill sometimes it doesn't so just listen, because
it would extremely tedious to type it out, so just listen and figure it out for yourself whether you
play the first bar or 2nd
Добавлено: 21.10.2015
Другие материалы по этой песне:
  • Аккорды и текст

Страница создана 21.10.2015
http://primanota.ru/antiseen/we-got-this-far-without-you-chords.htm
Привет, Гость.
Предлагаем пройти революционный курс по гитаре.
Подарок от PrimaNota.Ru, забирай!