PrimaNota.ru - самый крупный в мире бесплатный архив песенных текстов, аккордов, табулатур и нот


Antiseen - Watch The Bastard Fry - таба, бас-таба, видео

Регистрация Запомнить меня
Войти через:  Facebook Google Twitter Vk Yandex Mail.ru

Antiseen - Watch The Bastard Fry - таба, бас-таба, видео

Печатать
Просмотров: 59
Verse
E----------------------------------------|
B----------------------------------------|
G-----------7-7-7--7--9-9-9--9-----------|
D-9-9-9--9--7-7-7--7--9-9-9--9--7-7--7-7-|
A-9-9-9--9--5-5-5--5--7-7-7--7--7-7--7-7-|
E-7-7-7--7----------------------5-5--5-5-|


Chorus
E-------------------|
B-------------------|
G-9--7--8-----------|
D-9--7--9--7-7--7-7-|
A-7--5--7--7-7--7-7-|
E----------5-5--5-5-|


Just listen for the order, ain't nothing to it
Добавлено: 27.12.2015
Другие материалы по этой песне:
  • Аккорды и текст

Страница создана 21.10.2015
http://primanota.ru/antiseen/watch-bastard-fry-chords.htm
Привет, Гость.
Предлагаем пройти революционный курс по гитаре.
Подарок от PrimaNota.Ru, забирай!