PrimaNota.ru - самый крупный в мире бесплатный архив песенных текстов, аккордов, табулатур и нот


Antiseen - Southern Hostility (album) - таба, бас-таба, видео

Регистрация Запомнить меня
Войти через:  Facebook Google Twitter Vk Yandex Mail.ru

Antiseen - Southern Hostility (album) - таба, бас-таба, видео

Печатать
Просмотров: 127
Songs are quick to learn, just listen for the order on them and you'll be all set

1. Death Train Coming


Intro           (Strum till drums kick in)
E-----------------------------------|
B-----------------------------------|
G-6-------------6666666666666666666-|
D-6-------------6666666666666666666-|
A-4-------------4444444444444444444-|
E-----------------------------------|

Main Riff
E------------------------------|
B------------------------------|
G-6-6-6-6--9-9-9-9---------6-4-|
D-6-6-6-6--9-9-9-9-9-9-9-9-6-4-|
A-4-4-4-4--7-7-7-7-9-9-9-9-4-2-|
E------------------7-7-7-7-----|

Second Riff
E----------------------------|
B----------------------------|
G-6-6-6--9-9-9---------6-9---|
D-6-6-6--9-9-9--9-9-9--6-9-9-|
A-4-4-4--7-7-7--9-9-9--4-7-9-|
E---------------7-7-7------7-|


2. Leeches And Losers 


Verse
E--------------------|
B--------------------|
G-4-4-4--7--2--9--7--|
D-4-4-4--7--2--9--7--|
A-2-2-2--5--0--7--5--|
E--------------------|


Chorus
E-----------------------------|
B-----------------------------|
G-4-4-4--7-7-7--2-2-2--9-9-9--|
D-4-4-4--7-7-7--2-2-2--9-9-9--|
A-2-2-2--5-5-5--0-0-0--7-7-7--|
E-----------------------------|


Ending
E-----------------|
B-----------------|
G-4-4-4---4-4-4---|
D-4-4-4---4-4-4---|
A-2-2-2---2-2-2---|
E-----------------|



3. Evil Rock and Roll


Verse
E---------------------------|
B---------------------------|
G-9-9--9-9------------------|
D-9-9--9-9--7-7-7-7-9-9-9-9-|
A-7-7--7-7--7-7-7-7-9-9-9-9-|
E-----------5-5-5-5-7-7-7-7-|


Chorus                             x3
E------------------------------------|------------------|
B------------------------------------|------------------|
G-------------------9-9-9-9--6-6-6-6-|------------------|
D-7-7-7-7--9-9-9-9--9-9-9-9--6-6-6-6-|-7-7-7-7--9-9-9-9-|
A-7-7-7-7--9-9-9-9--7-7-7-7--4-4-4-4-|-7-7-7-7--9-9-9-9-|
E-5-5-5-5--7-7-7-7-------------------|-5-5-5-5--7-7-7-7-| (Then always right back to the Verse)


4. My God Can Beat Up Your God


Verse       
E-------------|
B-------------|
G-7-7-7-7-5---|
D-7-7-7-7-5-5-|
A-5-5-5-5-3-5-|
E-----------3-|


Chorus
E---------------------------------|
B---------------------------------|
G-2-2-2-2-4-4-4-4---------2-2-2-2-|
D-2-2-2-2-4-4-4-4-5-5-5-5-2-2-2-2-|
A-0-0-0-0-2-2-2-2-5-5-5-5-0-0-0-0-|
E-----------------3-3-3-3---------|


5. Kick In The Head


Verse 
E---------------|
B---------------|
G-9-9-9---6-6-6-|
D-9-9-9---6-6-6-|
A-7-7-7---4-4-4-|
E---------------|


Chorus          x3
E-----------------|-----------|
B-----------------|-----------|
G-4-4-4-4-2-2-2-2-|-9-9-9-9-9-|
D-4-4-4-4-2-2-2-2-|-9-9-9-9-9-|
A-2-2-2-2-0-0-0-0-|-7-7-7-7-7-|
E-----------------|-----------|


6. Kill The Business


Verse
E-----------------------|
B-----------------------|
G-4-4-4--4-4--4-4-4--2--|
D-4-4-4--4-4--4-4-4--2--|
A-2-2-2--2-2--2-2-2--0--|
E-----------------------|


Chorus
E------------------------|
B------------------------|
G-4-4-4--4-4--4-4-4--9-9-|
D-4-4-4--4-4--4-4-4--9-9-|
A-2-2-2--2-2--2-2-2--7-7-|
E------------------------|


7. Last Days On Earth


Verse
E----------------|
B----------------|
G----------------|
D-9-7-9--9-9-9-9-|
A-9-7-9--9-9-9-9-|
E-7-5-7--7-7-7-7-|


PreChorus
E---------------------------|
B---------------------------|
G----9-----9-----9----------|
D-9--9--9--9--9--9--9-9-9-9-|
A-9--7--9--7--9--7--9-9-9-9-|
E-7-----7-----7-----7-7-7-7-|


Chorus
E----------------------|
B----------------------|
G----------------7-7-7-|
D-9-9--7-7--9-9--7-7-7-|
A-9-9--7-7--9-9--5-5-5-|
E-7-7--5-5--7-7--------|


8. Old Man Hit The Road


Verse
E------------------------|
B------------------------|
G------------------7--5--|
D-7--7-7-7--7--7-7-7--5--|
A-7--7-7-7--7--7-7-5--3--|
E-5--5-5-5--5--5-5-------|


Chorus
E---------------------------------|
B---------------------------------|
G-----------------2-2-2-2-2-2-2-2-|
D-5-5-5-5-5-5-5-5-2-2-2-2-2-2-2-2-|
A-5-5-5-5-5-5-5-5-0-0-0-0-0-0-0-0-|
E-3-3-3-3-3-3-3-3-----------------|


9. Small Town Schizo


Verse
E-------------------|
B-------------------|
G-9-9--9-9-9--6--7--|
D-9-9--9-9-9--6--7--|
A-7-7--7-7-7--4--5--|
E-------------------|


Chorus
E-------------------|
B-------------------|
G-4-4-4-4-4-4--2-3--|
D-4-4-4-4-4-4--2-3--|
A-2-2-2-2-2-2--0-1--|
E-------------------|


10. Watch The Bastard Fry


Verse
E----------------------------------------|
B----------------------------------------|
G-----------7-7-7--7--9-9-9--9-----------|
D-9-9-9--9--7-7-7--7--9-9-9--9--7-7--7-7-|
A-9-9-9--9--5-5-5--5--7-7-7--7--7-7--7-7-|
E-7-7-7--7----------------------5-5--5-5-|


Chorus
E-------------------|
B-------------------|
G-9--7--8-----------|
D-9--7--9--7-7--7-7-|
A-7--5--7--7-7--7-7-|
E----------5-5--5-5-|



11. Slice You Open


Chorus 
E----------------------------------|
B----------------------------------|
G-7-7-7-7-7-7-7-7------------------|
D-7-7-7-7-7-7-7-7--4-4-4-4-4-4-4-4-|
A-5-5-5-5-5-5-5-5--4-4-4-4-4-4-4-4-|
E------------------2-2-2-2-2-2-2-2-|


Verse
E---------------------------------|
B---------------------------------|
G-9-9-9-9-4-4-4-4-6-6-6-6-2-2-2-2-|
D-9-9-9-9-4-4-4-4-6-6-6-6-2-2-2-2-|
A-7-7-7-7-2-2-2-2-4-4-4-4-0-0-0-0-|
E---------------------------------|


12. Hate For Power


Verse
E---------------------|
B---------------------|
G-4--4-4--4--4-4--7-9-|
D-4--4-4--4--4-4--7-9-|
A-2--2-2--2--2-2--5-7-|
E---------------------|


Chorus
E------------------------------------|
B------------------------------------|
G-7-7-7-7-7-7-7-7--9-9-9-9-9-9-9-9-9-|
D-7-7-7-7-7-7-7-7--9-9-9-9-9-9-9-9-9-|
A-5-5-5-5-5-5-5-5--7-7-7-7-7-7-7-7-7-|
E------------------------------------|


13. Ivory Towers


Verse
E--------------------------|
B--------------------------|
G--------------------------|
D-5--7--5---------5--7--9--|
A-5--7--5--x-x-x--5--7--9--|
E-3--5--3--x-x-x--3--5--7--|


Prechorus
E--------------------------|
B--------------------------|
G-6-6-6--6-6-6--6-6-6--9---|
D-6-6-6--6-6-6--6-6-6--9-9-|
A-4-4-4--4-4-4--4-4-4--7-9-|
E------------------------7-|


Chorus
E---------------------------|
B---------------------------|
G-6-6-6--9-9-9--------------|
D-6-6-6--9-9-9--9-9-9-9-9-9-|
A-4-4-4--7-7-7--9-9-9-9-9-9-|
E---------------7-7-7-7-7-7-|


14. Self Destruction


Intro (bass only)
G-------------------------------|
D-0------0----0-0-0-0-0-0-(ETC)-|
A-------------------------------|
E-------------------------------|

(Right into Chorus- no vocals)
E-------------------------|
B-------------------------|
G-7-7-----4-4-4-4-4-4-4-4-|
D-7-7-5-7-4-4-4-4-4-4-4-4-|
A-5-5-5-7-2-2-2-2-2-2-2-2-|
E-----3-5-----------------|


Verse                 x5            (just before chorus)
E-------------------------|------------------------|
B-------------------------|------------------------|
G-----------------7---7---|-7----7-7-7-7-7-7-7-7-7-|
D-5-5-5-5-7-7-7-7-7-7-7-7-|-7-7--7-7-7-7-7-7-7-7-7-|
A-5-5-5-5-7-7-7-7-5-7-5-7-|-5-7--5-5-5-5-5-5-5-5-5-|
E-3-3-3-3-5-5-5-5---5---5-|---5--------------------|


Chorus
E-------------------------|
B-------------------------|
G-7-7-----4-4-4-4-4-4-4-4-|
D-7-7-5-7-4-4-4-4-4-4-4-4-|
A-5-5-5-7-2-2-2-2-2-2-2-2-|
E-----3-5-----------------|


Outro
E-------------------------------|
B-------------------------------|
G-----7---7---------------------|
D--5--7---7---------------------|
A--5--5---5----(ring)-----------|
E--3----------------------------|
Добавлено: 20.07.2015
Другие материалы по этой песне:
  • Аккорды и текст

Страница создана 20.07.2015
http://primanota.ru/antiseen/southern-hostility-album-chords.htm
Привет, Гость.
Предлагаем пройти революционный курс по гитаре.
Подарок от PrimaNota.Ru, забирай!