PrimaNota.ru - самый крупный в мире бесплатный архив песенных текстов, аккордов, табулатур и нот


Antischism - Foreign Policy - текст песни, таба, видео

Регистрация Запомнить меня
Войти через:  Facebook Google Twitter Vk Yandex Mail.ru

Antischism - Foreign Policy - текст песни, таба, видео

Печатать
Просмотров: 127
-------------------------------------------------------------------------------
			     Foreign Policy - Antischism
-------------------------------------------------------------------------------

Tabbed by: anarcho-chad

Tuning: Standard

e|---------------------------|
B|---------------------------|
G|---------------------------|
D|-----7-8------8-7------7-8-|
A|---8--------8--------8-----|
E|-6--------7--------6-------|

e|-------------------------------------------|
B|-------------------------------------------|
G|-------------------------------------------|
D|---8---8---7---7---7-----8---8---7---7---7-|
A|-------------------------------------------|
E|-6---6---6---6---6-----6---6---6---6---6---|

e|-------------------------------------------|
B|-------------------------------------------|
G|-------------------------------------------|
D|---5---5---6---6---6-----5---5---6---6---6-|
A|-------------------------------------------|
E|-4---4---4---4---4-----4---4---4---4---4---|

e|-------------------------------------------|
B|-------------------------------------------|
G|-------------------------------------------|
D|---8---8---7---7---7-----8---8---7---7---7-|
A|-------------------------------------------|
E|-6---6---6---6---6-----6---6---6---6---6---|

e|-------------------------------------------|
B|-------------------------------------------|
G|-------------------------------------------|
D|---5---5---6---6---6-----5---5---6---6---6-|
A|-------------------------------------------|
E|-4---4---4---4---4-----4---4---4---4---4---|

e|-------------------------------------------|
B|-------------------------------------------|
G|-------------------------------------------|
D|---8---8---7---7---7-----8---8---7---7---7-|
A|-------------------------------------------|
E|-6---6---6---6---6-----6---6---6---6---6---|

e|---------------------------------|
B|---------------------------------|
G|---------------------------------|
D|---5---5---6---6---6-----5---5-6-|
A|-------------------------------6-|
E|-4---4---4---4---4-----4---4---4-|

e|-------------|	
B|-------------|		
G|-------------|	
D|-55-5-8-77-7-|	
A|-55-5-8-77-7-|	
E|-33-3-6-55-5-| x4 	

e|-------------------|
B|-------------------|
G|-----------77-7-77-|
D|-77-7-88-8-77-7-77-|
A|-77-7-88-8-55-5-55-|
E|-55-5-66-6---------|

e|-------------|	
B|-------------|	
G|-------------|	
D|-55-5-8-77-7-|	
A|-55-5-8-77-7-|	
E|-33-3-6-55-5-| x4	

e|-----------------------|
B|-----------------------|
G|-----------------------|
D|-77-7-88-8-77-7-88-8-7-|
A|-77-7-88-8-77-7-88-8-7-|
E|-55-5-66-6-55-5-66-6-5-|

“…Senseless killing for corporate profit that's their foreign policy!”

e|-----------|
B|-----------|
G|-----------|
D|-77-7-88-8-|
A|-77-7-88-8-|
E|-55-5-66-6-| x4

e|------------|
B|------------|
G|--------7-7-|
D|-77-7-8-7-7-|
A|-77-7-8-5-5-|
E|-55-5-6-----| x4

e|----------------------------|
B|----------------------------|
G|----------------------------|
D|-7--58--7--58--7--58--7--58-|
A|-7--58--7--58--7--58--7--58-|
E|-5--36--5--36--5--36--5--36-|

e|-----------|
B|-----------|
G|-----------|
D|-7777-8888-|
A|-7777-8888-|
E|-5555-6666-| x4

e|------------|
B|------------|
G|--------7-7-|
D|-7777-8-7-7-|
A|-7777-8-5-5-|
E|-5555-6-----| x4

e|----------------------------|
B|----------------------------|
G|-5--58--7--58--7--58--7--58-|
D|-5--58--7--58--7--58--7--58-|
A|-3--36--5--36--5--36--5--36-|
E|----------------------------|

e|-----------|
B|-----------|
G|-7777-8888-|
D|-7777-8888-|
A|-5555-6666-|
E|-----------| x4

e|------------|
B|--------8-8-|
G|-7777-8-7-7-|
D|-7777-8-5-5-|
A|-5555-6-----|
E|------------| x4

e|----------------------------|
B|----------------------------|
G|----------------------------|
D|-7--58--7--58--7--58--7--58-|
A|-7--58--7--58--7--58--7--58-|
E|-5--36--5--36--5--36--5--36-|

e|-----------|
B|-----------|
G|-----------|
D|-7777-8888-|
A|-7777-8888-|
E|-5555-6666-| x4

e|------------|
B|------------|
G|--------7-7-|
D|-7777-8-7-7-|
A|-7777-8-5-5-|
E|-5555-6-----| x4

e|---|
B|---|
G|---|
D|-7-|
A|-7-|
E|-5-|


| /  slide up
| \  slide down
| h  hammer-on
| p  pull-off
| ~  vibrato
| +  harmonic
| x  Mute note
===============================================================================
Добавлено: 08.07.2012
Другие материалы по этой песне:
  • Аккорды и текст

Страница создана 06.04.2012
http://primanota.ru/antischism/foreign-policy-chords.htm
Привет, Гость.
Предлагаем пройти революционный курс по гитаре.
Подарок от PrimaNota.Ru, забирай!